Cifra Club

Peacemaker

Green Day

Tablatura: Principal (guitarra)
Tom: D
Intro: Bm

( Bm  F#m  D Bm )

Verso:
( Bm )
Well, I've got a fever, a non-believer. I'm in a state of grace
                                         F#m
For I am the Caesar, I'm gonna seize the day

Well, call of the banshee hey hey. Hey hey hey hey hey
                                            Bm
As God as my witness the infidels are gonna pay

Well, call the assassin. The orgasm. A spasm of love and hate
                                               Bm
For what will divide us? The righteous and the meek

Well, call of the wild hey hey. Hey hey hey hey hey
                                    Bm
Death to the girl at the end of the serenade

Refrão:
E|---------------------------------------------------------------------------|
B|---------------------------------------------------------------------------|
G|---------------------------------------------------------------------------|
D|---------------------------------------------------------------------------|
A|------------------------------2~-------5------2~---------------------------|
E|-2~--------------3-2~------2-----------------------------------------------|
F#m                            Bm
Vendetta, sweet vendetta. This Beretta of the night
E|---------------------------------------------------------------------------|
B|---------------------------------------------------------------------------|
G|---------------------------------------------------------------------------|
D|--------------------------------------------0------------------------------|
A|-5-----------------------------------------------0---2~--------------------|
E|---0~------------3-2~-----3-2~----------2----------------------------------|
E                 Bm      F#m                         Bm
This fire and the desire. Shots ringing out on a holy parasite

Verso 2:

I am a killjoy from Detroit. I drink from a well of rage
                                    F#m
I feed off the weakness with all my love

Call up the captain hey hey. Hey hey hey hey hey
                                          Bm
Death to the lover that you were dreaming of

This is a stand off, a Molotov cocktail On the house
                                                F#m
You thought I was a write off. You better think again

Call the peacemaker hey hey. Hey hey hey hey hey
                                                  Bm
I'm gonna send you back to the place where it all began

Refrão:
E|---------------------------------------------------------------------------|
B|---------------------------------------------------------------------------|
G|---------------------------------------------------------------------------|
D|---------------------------------------------------------------------------|
A|------------------------------2~-------5------2~---------------------------|
E|-2~--------------3-2~------2-----------------------------------------------|
F#m                            Bm
Vendetta, sweet vendetta. This Beretta of the night
E|---------------------------------------------------------------------------|
B|---------------------------------------------------------------------------|
G|---------------------------------------------------------------------------|
D|--------------------------------------------0------------------------------|
A|-5-----------------------------------------------0---2~--------------------|
E|---0~------------3-2~-----3-2~----------2----------------------------------|
E                 Bm      F#m                         Bm
This fire and the desire. Shots ringing out on a holy parasite

Solo:
(guitarra 1)
E|-------------------------------------------------------------------------------|
B|--------------11-9-11-9-11-9-11----9-11-9-11-9-11-------9-12-11-12-11-12-11----|
G|-4---3---4----------------------11----------------11-11---------------------11-|
D|-------------------------------------------------------------------------------|
A|-------------------------------------------------------------------------------|
E|-------------------------------------------------------------------------------|

(guitarra 2)
         F#m                                         Bm
E|-------------------------------------------------------------------------------|
B|----11-12-11-12-11-12-11-------11-12-11-12-14-15-14-12-11-12-11-12-11-12-11----|
G|-11----------------------11-11----------------------------------------------11-|
D|-------------------------------------------------------------------------------|
A|-------------------------------------------------------------------------------|
E|-------------------------------------------------------------------------------|

                                  E                          Bm
E|-------------------------------------------------------------------------------|
B|----9-11-9-11-9-11-9-------12--11h12-15-12-------------------------------------|
G|-11------------------11-11-----------------------------------------------------|
D|-------------------------------------------------------------------------------|
A|-------------------------------------------------------------------------------|
E|-------------------------------------------------------------------------------|


Verso 3:
(Bm)
Well now the caretaker's the undertaker. Now I'm gonna go out and get the peacemaker
                               F#m
This is the neo St. Valentines Massacre. Well call up the Gaza hey hey. hey hey hey hey hey
                                    Bm
Death to the ones at the end of the serenade
      F#m                                 Bm
Well, death to the ones at the end of the serenade
      F#m                                 Bm
Well, death to the ones at the end of the serenade
       F#m (stop)                                   Bm       ( Bm )
Well, death to the ones at the end of the sere|-----nade
reproducciones 1.124
Acordes para:
    Composição: Billie Joe Armstrong / Green Day Colaboración y revision:
    • Camila Zenkner
    • Felipe Schoffler

    0 comentarios

    mostrar más comentarios

    ¿Conseguiste tocar?

    6 tocaron 0 aún no

    ¡Graba un vídeo tocando Peacemaker y envianoslo!

    00:00 / 00:00
    outros vídeos desta música
    repetir qualidade Automático
    Outros vídeos desta música
    00:00 / 00:00
    Automático
    OK