Cifra Club

Rest

Green Day

Tablatura: Principal (guitarra)
Tom: G
Introdução:
E|----|---------------------------------|
B|----|---------------------------------|
G|--4-|---4------4------4----4-----4----|
D|---5|--5--5---5--5---5--5----5-----5--|
A|----|-5----5-5----5-5----5------------|
E|-3--|3------3------3------3--3--------|


Verso 1:
e|-------------------------------------------------|
B|-------------------------------------------------|
G|-------4-----------4-----------4-----------4-----|
D|-----5---5-------5---5-------5---5-------5---5---|
A|---5-------5---5-------5---5-------5---5-------5-|
E|-3-----------3-----------3-----------3-----------|

e|-------------------------------------------------|
B|-------------------------------------------------|
G|-------2-----------2-----------4-----------4-----|
D|-----3---3-------3---3-------5---5-------5---5---|
A|---3-------3---3-------3---5-------5---5-------5-|
E|-1-----------1-----------3-----------3-----------|

Hey, can you hear me?
I'm calling your name.
Hello? Or is this goodbye?

The gleam in your eyes
It troubles my brain
Will I see it again?


Refrão:
e|-------------------------------------------------|
B|-------------------------------------------------|
G|---7-----6-----4-----4----4--4-------------------|
D|--8-8---7-7---5-5---5-5----5---5-----------------|
A|-8---8-7---7-5---5-5---5-------------------------|
E|6-----5-----3-----3-----3--3---3-----------------|

So I can Rest my head


e|-------------------------------------------------|
B|-------------------------------------------------|
G|--4---4--------------(4)---(4)----(4)---(4)---(4)|
D|--5---5-----5~-------(5)---(5)----(5)---(5)---(5)|
A|------------5~-------(5)---(5)----(5)---(5)---(5)|
E|--3---3-----3~-------(3)---(3)----(3)---(3)---(3)|


Verso 2:
e|-------------------------------------------------|
B|-------------------------------------------------|
G|-4---------------------4-4-----------4-----4-----|
D|-5~--------------------5-5~----------5-------5---|
A|-5~--------------------5-5~----------5---------5-|
E|-3~--------------------3-3~----------3-----------|

e|-------------------------------------------------|
B|-------0-----------0-----------0-----------0-----|
G|-------------------------------------------------|
D|-----3---3-------3---3-------5---5-------5---5---|
A|---3-------3---3-------3---5-------5---5-------5-|
E|-1-----------1-----------3-----------3-----------|


Angel! (angel!) Dancing away
As all of my thoughts
Get rearranged

Angel! (angel!) Turning away
Just when things seem
To have changed

Refrão:
e|-------------------------------------------|
B|-------------------------------------------|
G|-----7-----7-----4-----4-----4-----4-------|
D|----8-8---7-7---5-5---5-5---5-5---5-5------|
A|---8---8-7---7-5---5-5---5-5---5-5---5-----|
E|--6-----5-----3-----3----3------3----------|

So I can Rest my head


e|-------------------------------------------------|
B|-------------------------------------------------|
G|-------7-----------6-----------7-----------6-----|
D|-----8---8-------7---7-------8---8-------7---7---|
A|---8-------8---7-------7---8-------8---7-------7-|
E|-6-----------5-----------6-----------5-----------|

e|----------------------------------------|
B|----------------------------------------|
G|----7------9------11------11------11----|
D|---8-8---10-10---12-12---12-12---12-12--|
A|--8---8-10---10-12---12-12---12-12---12-|
E|-6-----8------10------10------10--------|

e|-------------|
B|-------------|
G|---4-----4---|
D|-----5-----5-|
A|-------------|
E|-3-----3-----|

Verso 3:

Hey, can you hear me?
I'm calling your name.
Hello? Or is this goodbye?

The gleam in your eyes
It troubles my brain
Will I see it again?

Refrão:

So I can Rest my head
So I can Rest my head.

Fim: G (3554xx)
reproducciones 156
Acordes para:
    Composição: Billie Joe Armstrong / Green Day Colaboración y revision:
    • George Pinho

    0 comentarios

    mostrar más comentarios

    ¿Conseguiste tocar?

    0 tocaron 0 aún no

    ¡Graba un vídeo tocando Rest y envianoslo!

    00:00 / 00:00
    outros vídeos desta música
    repetir qualidade Automático
    Outros vídeos desta música
    00:00 / 00:00
    Automático
    OK