Cifra Club

Rusty James

Green Day

Tablatura: Principal (guitarra)
Tom: E
Intro: E  E4  E  E9

E                 E/D#
This whiskey sour, amateur hour
A
Raise your glass and toast your friends
Am
Someday we will fight again

E            G#m
Your enemies, your tragedies
A
Pocket knives and rusty chains
B
Where the hell is the old gang at?

F#m         G#m           A            B
And all the losers, can't even win for losing
F#m       G#m                 A                     B
And the beginners don't even know what song they're singing

              E            B
When there's no one left around
                E            B
And you're the last gang in town
          C#m              G#m
And your heart can't even break
         A            B
When it doesn't even pound

E                E/D#
This broken scene is turning green
A
A brass knuckles left in the rain
Am
Death wish kids among the living

E           G#m
I wanna ride on the divided
A
Anything but the mainstream
B
Where the fuck is your old gang man?

F#m         G#m           A            B
And all the losers, can't even win for losing
F#m       G#m                 A                     B
And the beginners don't even know what song they're singing

              E            B
When there's no one left around
                E            B
And you're the last gang in town
          C#m              G#m
And your heart can't even break
         A            B
When it doesn't even pound

        A
So long
                     E - E4 - E
Didn't even say goodnight
        A
So long
                                   B
There's no where to go when you're hiding in plain sight

Solo:

     E       E/D#               A               Am
E|------------------------------------------------------------------
B|------------------------------------------------------------------
G|------------------------------------------------------------------
D|-------9-----------9h10p9---9-7-7-6-6-------9-7-7-6-6-------------
A|-7 7 7----6-6-6/7--------------------7-7-------------7-7-7-7/9----
E|------------------------------------------------------------------

     E       G#m                a               B
E|------------------------------------------------------------------
B|------------------------------------------------------------------
G|------------------------------------------------------------------
D|-------9-----------9h10p9---9-7-7-6-6-------9-7-7-6-6-------------
A|-7 7 7----6-6-6/7--------------------7-7-------------7-7-7-7/9----
E|------------------------------------------------------------------

        F#m              G#m                  A                   B          (2z)

E|-6-6-6-6-6-6-6/8--8--8--8--8--8--8---9--9--9--9--9--9---------------------
B|-8-8-8-8-8-8-8/10-10-10-10-10-10-10--10-10-10-10-10-10--12-12-12-12-12-12-
G|-7-7-7-7-7-7-7/9--9--9--9--9--9--9---9--9--9--9--9--9---11-11-11-11-11-11-
D|--------------------------------------------------------9--9--9--9--9--9--
A|--------------------------------------------------------------------------
E|--------------------------------------------------------------------------

Guitarra Base: F#5  G#5  A5  B5 (2x)

              E            B
When there's no one left around
                E            B
And you're the last gang in town
          C#m              G#m
And your heart can't even break
         A            B
When it doesn't even pound

( E  E4  E  E9 )

E|-----------------------------------------|
B|-----------------------------------------|
G|-----------------------------------------|
D|-6-6-6h7---6-6-4---6-6-6h7---6-6---------|
A|---------------------------------2-------|
E|-----------------------------------------|

E
reproducciones 754
Acordes para:
    Composição: Billie Joe Armstrong / Green Day Colaboración y revision:
    • Jean Gurmendi
    • Thiago Barcelos

    0 comentarios

    mostrar más comentarios

    ¿Conseguiste tocar?

    6 tocaron 0 aún no

    ¡Graba un vídeo tocando Rusty James y envianoslo!

    00:00 / 00:00
    outros vídeos desta música
    repetir qualidade Automático
    Outros vídeos desta música
    00:00 / 00:00
    Automático
    OK