Cifra Club

She

Green Day

Tablatura: Versão 2
reproducciones 62
Tono: F#
↓↓  ↓↑↓↑  ↑↓↑
Introdução: (F C# B)
G|---------------------------------------------------------|
D|---------------------------------------------------------| 
A|--------------------4-4-4-4-4-4-4-4-4--2-2-2-2-2-2-2-2-2-|
E|-2-2-2-2-2-2-2-2-2---------------------------------------|

Verso:
e|---------------------------------------------------------|
B|---------------------------------------------------------|
G|--------------------6-6-6-6-6-6-6-6-6--4-4-4-4-4-4-4-4-4-|
D|-4-4-4-4-4-4-4-4-4--6-6-6-6-6-6-6-6-6--4-4-4-4-4-4-4-4-4-|
A|-4-4-4-4-4-4-4-4-4--4-4-4-4-4-4-4-4-4--2-2-2-2-2-2-2-2-2-|
E|-2-2-2-2-2-2-2-2-2---------------------------------------|
F#            C#
She screams in silence
         B                             F#
A sullen riot penetrating through her mind
F#           C#
Waiting for a sign 
             B                               F#
To smash the silence with the brick of self control

Verso:
e|---------------------------------------|
B|---------------------------------------|
G|-6-6-6-6-6-6-6-6--4-4-4-4--------------|
D|-6-6-6-6-6-6-6-6--4-4-4-4--4-4-4-4-4-4-|
A|-4-4-4-4-4-4-4-4--2-2-2-2--4-4-4-4-4-4-|
E|---------------------------2-2-2-2-2-2-|
C#                                 B                     F#
Are you locked up in a world that's been planned out for you?
C#                           B               F#
Are you feeling like a social tool without a use?

Refrão:
e|-------------------------------------------------------------------------------|
B|-------------------------------------------------------------------------------|
G|-4-4-4-4--------------4-4-4-4-------------4-4-4-4--------------6-6-6-6-6-6-6-6-|
D|-4-4-4-4--4-4-4-4-4-4-4-4-4-4-4-4-4-4-4-4-4-4-4-4--4-4-4-4-4-4-6-6-6-6-6-6-6-6-|
A|-2-2-2-2--4-4-4-4-4-4-2-2-2-2-4-4-4-4-4-4-2-2-2-2--4-4-4-4-4-4-4-4-4-4-4-4-4-4-|
E|----------2-2-2-2-2-2---------2-2-2-2-2-2----------2-2-2-2-2-2-----------------|
B          F#      B        F#  
Scream at me until my ears bleed
B           F#           C# 
I'm taking heed just for you

Verso:
e|--------------------------------------------------------------------------------|
B|--------------------------------------------------------------------------------|
G|----------------------------6-6-6-6-6-6-6-6--4-4-4-4-4-4-4-4----------4---------|
D|-4-4-4-4-4-4-4-4-4-4-4-4-4--6-6-6-6-6-6-6-6--4-4-4-4-4-4-4-4--4-4-4-4-4-4-4-4-4-|
A|-4-4-4-4-4-4-4-4-4-4-4-4-4--4-4-4-4-4-4-4-4--2-2-2-2-2-2-2-2--4-4-4-4-2-4-4-4-4-|
E|-2-2-2-2-2-2-2-2-2-2-2-2-2------------------------------------2-2-2-2---2-2-2-2-|
F#           C#           
She's figured out
        B                                    F#   B  F#
All her doubts were someone else's point of view
F#            C#
Waking up this time
             B                               F#  B  F
To smash the silence with the brick of self control

Verso:
e|---------------------------------------|
B|---------------------------------------|
G|-6-6-6-6-6-6-6-6--4-4-4-4--------------|
D|-6-6-6-6-6-6-6-6--4-4-4-4--4-4-4-4-4-4-|
A|-4-4-4-4-4-4-4-4--2-2-2-2--4-4-4-4-4-4-|
E|---------------------------2-2-2-2-2-2-|
C#                                 B                     F#
Are you locked up in a world that's been planned out for you?
C#                           B               F#
Are you feeling like a social tool without a use?

Refrão:
e|-------------------------------------------------------------------------------|
B|-------------------------------------------------------------------------------|
G|-4-4-4-4--------------4-4-4-4-------------4-4-4-4--------------6-6-6-6-6-6-6-6-|
D|-4-4-4-4--4-4-4-4-4-4-4-4-4-4-4-4-4-4-4-4-4-4-4-4--4-4-4-4-4-4-6-6-6-6-6-6-6-6-|
A|-2-2-2-2--4-4-4-4-4-4-2-2-2-2-4-4-4-4-4-4-2-2-2-2--4-4-4-4-4-4-4-4-4-4-4-4-4-4-|
E|----------2-2-2-2-2-2---------2-2-2-2-2-2----------2-2-2-2-2-2-----------------|
B          F#       B        F#  
Scream at me until my ears bleed
B           F#           C# 
I'm taking heed just for you

Passagem: (F# C# B F# B F F#)
e|--------------------------------------------------------------------------------|
B|--------------------------------------------------------------------------------|
G|----------------------------6-6-6-6-6-6-6-6--4-4-4-4-4-4-4-4----------4---------| 2x 
D|-4-4-4-4-4-4-4-4-4-4-4-4-4--6-6-6-6-6-6-6-6--4-4-4-4-4-4-4-4--4-4-4-4-4-4-4-4-4-|
A|-4-4-4-4-4-4-4-4-4-4-4-4-4--4-4-4-4-4-4-4-4--2-2-2-2-2-2-2-2--4-4-4-4-2-4-4-4-4-|
E|-2-2-2-2-2-2-2-2-2-2-2-2-2------------------------------------2-2-2-2---2-2-2-2-|

Verso:
e|---------------------------------------|
B|---------------------------------------|
G|-6-6-6-6-6-6-6-6--4-4-4-4--------------|
D|-6-6-6-6-6-6-6-6--4-4-4-4--4-4-4-4-4-4-|
A|-4-4-4-4-4-4-4-4--2-2-2-2--4-4-4-4-4-4-|
E|---------------------------2-2-2-2-2-2-|
C#                                 B                     F#
Are you locked up in a world that's been planned out for you?
C#                           B               F#
Are you feeling like a social tool without a use?

Refrão:
e|---------------------------------------------------------------------------------|
B|---------------------------------------------------------------------------------|
G|-4-4-4-4--------------4-4-4-4-------------4-4-4-4--------------6-6-6-6-6-6-6-6---|
D|-4-4-4-4--4-4-4-4-4-4-4-4-4-4-4-4-4-4-4-4-4-4-4-4--4-4-4-4-4-4-6-6-6-6-6-6-6-6-4-|
A|-2-2-2-2--4-4-4-4-4-4-2-2-2-2-4-4-4-4-4-4-2-2-2-2--4-4-4-4-4-4-4-4-4-4-4-4-4-4-4-|
E|----------2-2-2-2-2-2---------2-2-2-2-2-2----------2-2-2-2-2-2-----------------2-|
B          F#      B       F#  
Scream at me until my ears bleed
B           F#           C#    F#
I'm taking heed just for you
Acordes para:
    Compositor: Billie Joe Armstrong / Green DayColaboración y revision:
    • Daniel Mendes

    0 comentarios

      mostrar más comentarios

      ¿Conseguiste tocar?

      1tocaron0aún no

      ¡Graba un vídeo tocando She y envianoslo!

      00:00 / 00:00
      outros vídeos desta música
      repetirqualidadeautomática
      Outro vídeos desta música
        00:00 / 00:00
        automática
        OK