Cifra Club

Stay The Night

Green Day

Tablatura: Principal (guitarra)
Tom: G
Intro:
E|---------------------|-------------------|------------------|----------------|
B|---------------------|-------------------|------------------|----------------|
G|11-12-14-12-11--9--11|-11-12-14----------|-11-12-14-7-7-5-4-|----------------|
D|-0--0--0--0--0--0--0-|--0--0--0-11-12-14-|--0--0--0-0-0-0-0-|-11-12-14-12-11-|
A|---------------------|-----------0--0--0-|------------------|-12-12-12-12-12-|
E|---------------------|-------------------|------------------|----------------|

Verse 1:
E|------------|------------|-------------|------------|
B|------------|------------|-------------|------------|
G|-7---7------|7---7-----7-|-7---77------|77---77-----|
D|-7-7-7-5-7--|7-7-7-5-7-7-|-7-5-77-5-7--|77-5-77-5-7-|
A|-5-7-5-5-7--|5-7-5-5-7-5-|-5-5-55-5-7--|55-5-55-5-7-|
E|---5---3-5--|--5---3-5---|---3----3-5--|---3----3-5-|

Pre-Chorus:                 Chorus: (2x)
E|------------|------------|-------------|------------|
B|------------|------------|-------------|------------|
G|-4---7---4--|-7------7---|7-----7---7--|------------|
D|-4-5-7-7-4-5|-7-7----7-7-|7-5-7-7-7-7-5|-7----------|
A|-2-5-5-7-2-5|-5-7----5-7-|5-5-7-5-7-5-5|-7----------|
E|---3---5---3|---5------5-|--3-5---5---3|-5----------|

Verse 2:
E|------------|-------------|-----------------|
B|------------|-------------|--------5--------|
G|7---7-----7-|-7---77------|77---77--7-7-----|
D|7-7-7-5-7-7-|-7-5-77-5-7--|77-5-77---7--5-7-|
A|5-7-5-5-7-5-|-5-5-55-5-7--|55-5-55------5-7-|
E|--5---3-5---|---3----3-5--|---3---------3-5-|

Pre-Chorus:                 Chorus: (2x)
E|------------|------------|-------------|------------|
B|------------|------------|-------------|------------|
G|-4---7---4--|-7------7---|7-----7---7--|------------|
D|-4-5-7-7-4-5|-7-7----7-7-|7-5-7-7-7-7-5|-7----------|
A|-2-5-5-7-2-5|-5-7----5-7-|5-5-7-5-7-5-5|-7----------|
E|---3---5---3|---5------5-|--3-5---5---3|-5----------|

 Bridge:
E|---------------------|-------------------|----------------|----------------|
B|---------------------|-------------------|----------------|----------------|
G|11-12-14-12-11-9--11-|-11-12-14----------|11-12-14-7-7-5-4|----------------|
D|-0--0--0--0--0--0--0-|--0--0--0-11-12-14-|0--0--0-0-0-0-0-|-11-12-14-12-11-|
A|---------------------|-----------0--0--0-|----------------|--0--0--0--0--0-|
E|---------------------|-------------------|----------------|----------------|

Solo 2x/Breakdown:
E|--------------|----------------|--------------|------------------|
B|--------------|----------------|--------------|-----0-8-7-5------|
G|--11-9-11-12--|--9-12--11-9-7--|--11-9-7--7\6/|7/9---------------|
D|--x--x-x--x---|--x-x---x--x-x--|--x--x-x--xxxx|xxx----4x-----77--|
A|--9--7-9--10--|--7-10--9--7-5--|--9--7-5--5\4/|5/7-----------77--|
E|--------------|----------------|--------------|--------------55--|

Chorus: (2x)
E|------------|-------------|------------|
B|------------|-------------|------------|
G|-7------7---|7-----7---7--|------------|
D|-7-7----7-7-|7-5-7-7-7-7-5|-7----------|
A|-5-7----5-7-|5-5-7-5-7-5-5|-7----------|
E|---5------5-|--3-5---5---3|-5----------|

Other:
E|---------------------|-------------------|-----------------|----------------|
B|---------------------|-------------------|-----------------|----------------|
G|11-12-14-12-11-9--11-|-11-12-14----------|-11-12-14-7-7-5-4|----------------|
D|-0--0--0--0--0--0--0-|--0--0--0-11-12-14-|--0--0--0-0-0-0-0|-11-12-14-12-11-|
A|---------------------|-----------0--0--0-|-----------------|--0--0--0--0--0-|
E|---------------------|-------------------|-----------------|----------------|

End of D5
reproducciones 2.830
Acordes para:
    Composição: Billie Joe Armstrong / Green Day Colaboración y revision:

    0 comentarios

    mostrar más comentarios

    ¿Conseguiste tocar?

    4 tocaron 0 aún no

    ¡Graba un vídeo tocando Stay The Night y envianoslo!

    00:00 / 00:00
    outros vídeos desta música
    repetir qualidade Automático
    Outros vídeos desta música
    00:00 / 00:00
    Automático
    OK