Cifra Club

Sweet 16

Green Day

Tablatura: Principal (guitarra)
Tom: G
Intro:
   G5          D5    G5           D5   G5          D5 C5 B5 A5 G5
E|---------------------------------------------------------------
B|---------------------------------------------------------------
G|-12-12-12-12--7----12-12-12-12--7----12-12-12-12--7--5-4-------
D|-12-12-12-12--7----12-12-12-12--7----12-12-12-12--7--5-4--7--5--
A|-10-10-10-10--5----10-10-10-10--5----10-10-10-10--5--3-2--7--5--
E|----------------------------------------------------------5--3--

G        Bm
Bring me back
      Am      D
To an hour ago
G             Bm
Time stands still
       Am         D
As the years go by
G           Bm
Brown eyed girl
         Am
That's throwing down
   D                G
A bottle of Old English
Bm           Am       D
Back in the warehouse

Refrão:

C            G
Old days are fine
         Bm            Em
But are left so far behind
C         D
From California
    G            C  G
To Jane Streets
C               G
The kids are alright
   Bm                   C   D
Alright as they'll ever be
C              D
Cause you will always be my,
C             D
Well you will always be my,
C               D
You will always be my sweet sixteen

(Intro)

G             Bm
Sleep on the floor
   Am        D
On cardboard
G            Bm
Stab out my heart
        Am        D
Like a dart board
G             Bm
Brown skinned girl
            Am
That I've dreamed about
   D              G
A long long time now
          Bm
From the Mid-West
        Am    D
To the beach

Refrão:

C            G
Old days are fine
         Bm            Em
But are left so far behind
C         D
From California
    G            C  G
To Jane Streets
C               G
The kids are alright
   Bm                   C   D
Alright as they'll ever be
C              D
Cause you will always be my,
C             D
Well you will always be my,
C               D
You will always be my sweet sixteen

(Intro)

Base do solo:  G  Bm  Am  D  (4x)

Solo:
E|-----------------------------------|
B|-----------------------------------|
G|-7/12---12--11--7--7--5-5-4--5--7--|(2x)
D|-----------------------------------|
A|-----------------------------------|
E|-----------------------------------|

E|--------------------------------------|
B|-----12--12---------------------------|
G|-7/12--12--12--11--7--7--5-5-4--5--7--|
D|--------------------------------------|
A|--------------------------------------|
E|--------------------------------------|

E|------------------------------------------|
B|-----12--12-----10--12--13--13----15--15--|
G|-7/12--12--12-----12--12--12----11--11----|
D|------------------------------------------|
A|------------------------------------------|
E|------------------------------------------|


C            G
Old days are fine
         Bm            Em
But are left so far behind
C         D
From California
    G            C  G
To Jane Streets
C               G
The kids are alright
   Bm                   C   D
Alright as they'll ever be
C              D
Cause you will always be my,
C             D
Well you will always be my,
C               D
You will always be my sweet sixteen

(Intro)   E fecha com G5.
reproducciones 925
Acordes para:
    Composição: Billie Joe Armstrong / Green Day Colaboración y revision:
    • felipe mendes

    0 comentarios

    mostrar más comentarios

    ¿Conseguiste tocar?

    4 tocaron 0 aún no

    ¡Graba un vídeo tocando Sweet 16 y envianoslo!

    00:00 / 00:00
    outros vídeos desta música
    repetir qualidade Automático
    Outros vídeos desta música
    00:00 / 00:00
    Automático
    OK