Cifra Club

Aprenda

Wake Me Up When September Ends

Green Day

Tablatura: Versão 5 (guitarra)
tono: G
(intro)

E|-----------------|----------------3|-----------------|----------------3|
B|-------3-------3-|-------3-------3-|-------3-------3-|-------3-------3-|
G|----0-------0----|----0-------0----|----0-------0----|----0-------0----|
D|-5-------5-------|-5-------5-------|-5-------5-------|-5-------5-------|
A|-----------------|-----------------|-----------------|-----------------|
E|-----------------|-----------------|-----------------|-----------------|

(1ª parte)
E|-----------------|----------------3|-----------------|-----------------|
B|-------3-------3-|-------3-------3-|-------3-------3-|-------3-------3-|
G|----0-------0----|----0-------0----|----0-------0----|----0-------0----|
D|-5-------5-------|-4-------4-------|-2-------2-------|-0-------0-------|
A|-----------------|-----------------|-----------------|-----------------|
E|-----------------|-----------------|-----------------|-----------------|
                                          
  (2ª parte)                                 (2x)
E|------------------|------------------|
B|------1-------1---|------4--------4--|
G|----0--------0----|-----5-------5----|     
D|------------------|------------------|
A|--3-------3-------|---3-------3------|
E|------------------|------------------|

E|----------------3|-----------------|---------------|---------------|
B|-------3-------3-|-------3-------3-|---------------|---------------|
G|----0-------0----|----0-------0----|--4---4--------|----5-5--------|
D|-5-------5-------|-4-------0-------|--4---4--------|----5-5--------|
A|-----------------|-----------------|--2---2--------|----3-3--------|
E|-----------------|-----------------|---------------|---------------|

E|-----------------|-----------------|---------------|-----------------|----------------|
B|-------3-------3-|-------3-------3-|---------------|-----------------|----------------|
G|----0-------0----|----0-------0----|--4---4--------|----5-5----------|----7-7---------|
D|-5-------5-------|-4-------0-------|--4---4--------|----5-5----------|----7-7---------|
A|-----------------|-----------------|--2---2--------|----3-3----------|----5-5---------|
E|-----------------|-----------------|---------------|-----------------|----------------|

(1ª parte)
E|-----------------|----------------3|-----------------|-----------------|
B|-------3-------3-|-------3-------3-|-------3-------3-|-------3-------3-|
G|----0-------0----|----0-------0----|----0-------0----|----0-------0----|
D|-5-------5-------|-4-------4-------|-2-------2-------|-0-------0-------|
A|-----------------|-----------------|-----------------|-----------------|
E|-----------------|-----------------|-----------------|-----------------|

(2ª parte)
E|------------------|------------------|
B|--------1------1--|------4-------4---|
G|-------0-----0----|-----5-------5----|     (2x)
D|------------------|------------------|
A|---3------3-------|---3-------3------|
E|------------------|------------------|

E|------------------|-----------------|------------------|-----------------------|
B|---3-------3------|----3---3--------|-----3---3--------|----3---3--------------|
G|-----0------0-----|-----0---0-------|------0---0-------|-----0---0-------------|
D|-------5-----5----|------5---5------|-------5---5------|------5---5------------|
A|------------------|----------------|-------------------|-----------------------|
E|------------------|-----------------|------------------|-----------------------|

 E|-----------------|-----------------|-----------------|-----------------|
B|-------3-------3-|-------3-------3-|-------3-------3-|-------3-------3-|
G|----0-------0----|----0-------0----|----0-------0----|----0-------0----|
D|-5-------5-------|-4-------4-------|-2-------2-------|-0-------0-------|
A|-----------------|-----------------|-----------------|-----------------|
E|-----------------|-----------------|-----------------|-----------------|

E|------------------|------------------|
B|--------1-----1---|------4-------4---|
G|-------0-----0----|-----5-------5----|
D|------------------|------------------|
A|---3------3-------|---3-------3------|
E|------------------|------------------|

(refrão)

E|------------------|-------------------|-------------------|------------------------------|
B|------------------|-----2---2---------|-------------------|------------------------------|
G|-----5-5----------|---3---3-----------|-------------------|---------4-4--5-5-------------|
D|-----5-5----------|---3---3-----------|----3-3--3-3-------|----2-2--4-4--5-5-------------|
A|-----3-3----------|---5---5-----------|----3-3--3-3-------|----2-2--2-2--3-3-------------|
E|------------------|-------------------|----5-5--2-2-------|----0-0-----------------------|

(versos 5)
E|-----------------|----------------3|-----------------|-----------------|
B|-------3-------3-|-------3-------3-|-------3-------3-|-------3-------3-|
G|----0-------0----|----0-------0----|----0-------0----|----0-------0----|
D|-5-------5-------|-4-------4-------|-2-------2-------|-0-------0-------|
A|-----------------|-----------------|-----------------|-----------------|
E|-----------------|-----------------|-----------------|-----------------|
  Summer has        come and passed, the innocent can   never last

(refrão)
    C                 Cm                G
E|-----------------|-5-5-5-5-5-5-5-5-|-3-3-3-3-3-3-3-3-3-3-3-3-|
B|-5-5-5-5-5-5-5-5-|-4-4-4-4-4-4-4-4-|-3-3-3-3-3-3-3-3-3-3-3-3-|
G|-5-5-5-5-5-5-5-5-|-5-5-5-5-5-5-5-5-|-4-4-4-4-4-4-4-4-4-4-4-4-|
D|-5-5-5-5-5-5-5-5-|-5-5-5-5-5-5-5-5-|-5-5-5-5-5-5-5-5-5-5-5-5-|
A|-3-3-3-3-3-3-3-3-|-3-3-3-3-3-3-3-3-|-5-5-5-5-5-5-5-5-5-5-5-5-|
E|-----------------|-----------------|-3-3-3-3-3-3-3-3-3-3-3-3-|
  Wake me up        when September     ends

(versos 6)
E|-----------------|-----------------|-----------------|-----------------|
B|-------3-------3-|-------3-------3-|-------3-------3-|-------3-------3-|
G|----0-------0----|----0-------0----|----0-------0----|----0-------0----|
D|-5-------5-------|-4-------4-------|-2-------2-------|-0-------0-------|
A|-----------------|-----------------|-----------------|-----------------|
E|-----------------|-----------------|-----------------|-----------------|
  Ring out the       bells again,     like we did when   spring began

(refrão)
    C                 Cm                G
E|-----------------|-5-5-5-5-5-5-5-5-|-3-3-3-3-3-3-3-3-3-3-3-3-|
B|-5-5-5-5-5-5-5-5-|-4-4-4-4-4-4-4-4-|-3-3-3-3-3-3-3-3-3-3-3-3-|
G|-5-5-5-5-5-5-5-5-|-5-5-5-5-5-5-5-5-|-4-4-4-4-4-4-4-4-4-4-4-4-|
D|-5-5-5-5-5-5-5-5-|-5-5-5-5-5-5-5-5-|-5-5-5-5-5-5-5-5-5-5-5-5-|
A|-3-3-3-3-3-3-3-3-|-3-3-3-3-3-3-3-3-|-5-5-5-5-5-5-5-5-5-5-5-5-|
E|-----------------|-----------------|-3-3-3-3-3-3-3-3-3-3-3-3-|
  Wake me up        when September     ends

(verso 6)
Em              Bm         C                G     F#
Here comes the rain again falling from the stars

Em              Bm         C                D D9 D (Fazer essa parte depois que o vocal cantou.)
Drenched in my pain again becoming who we are

(verso 7)
E|-----------------|-----------------|-----------------|-----------------|
B|-------3-------3-|-------3-------3-|-------3-------3-|-------3-------3-|
G|----0-------0----|----0-------0----|----0-------0----|----0-------0----|
D|-5-------5-------|-4-------4-------|-2-------2-------|-0-------0-------|
A|-----------------|-----------------|-----------------|-----------------|
E|-----------------|-----------------|-----------------|-----------------|
  As my memo---------ry rests,        but never forgets what I lost

(refrão)
    C                 Cm                G
E|-----------------|-5-5-5-5-5-5-5-5-|-3-3-3-3-3-3-3-3-3-3-3-3-|
B|-5-5-5-5-5-5-5-5-|-4-4-4-4-4-4-4-4-|-3-3-3-3-3-3-3-3-3-3-3-3-|
G|-5-5-5-5-5-5-5-5-|-5-5-5-5-5-5-5-5-|-4-4-4-4-4-4-4-4-4-4-4-4-|
D|-5-5-5-5-5-5-5-5-|-5-5-5-5-5-5-5-5-|-5-5-5-5-5-5-5-5-5-5-5-5-|
A|-3-3-3-3-3-3-3-3-|-3-3-3-3-3-3-3-3-|-5-5-5-5-5-5-5-5-5-5-5-5-|
E|-----------------|-----------------|-3-3-3-3-3-3-3-3-3-3-3-3-|
  Wake me up        when September     ends

(solo)
E|--------------------------------------------------------------------------------|
B|------12-----12--12--------12-----12--12-------13-----13--13-----12-12-12--12-12-12|
G|-12-12--12-12--12------11-11--11-11--11----12-12--12-12-12-------12-12-12--11-11-11|
D|--------------------------------------------------------------------------------|
A|--------------------------------------------------------------------------------|
E|--------------------------------------------------------------------------------|

E|--------------------------------------------------------------------------------|
B|------12-----12--12--------12-----12--12-------13-----13--13--------------------|
G|-12-12--12-12--12------11-11--11-11--11----12-12--12-12-12----------------------|
D|--------------------------------------------------------------------------------|
A|--------------------------------------------------------------------------------|
E|--------------------------------------------------------------------------------|

E|-15-15-15-15-15-15-15-15--15-15-15-15-15-15-15-15-|
B|-15-15-15-15-15-15-15-15--15-15-15-15-15-15-15-15-|                                               G|--------------------------------------------------| 2x
D|--------------------------------------------------|
A|--------------------------------------------------|
E|--------------------------------------------------|

E|-15~-|-----------------|-----------------|-----------------|-----------------|
B|-15~~|-------3-------3-|------3-------3--|-------3-------3-|--------3------3-|
G|-----|----0-------0----|----0-------0----|----0-------0----|----0-------0----|
D|-----|-5-------5-------|-5-------5-------|-5-------5-------|-5-------5-------|
A|-----|-----------------|-----------------|-----------------|-----------------|
E|-----|-----------------|-----------------|-----------------|-----------------|

(versos 8)
E|-----------------|-----------------|-----------------|-----------------|
B|-------3-------3-|-------3-------3-|-------3-------3-|-------3-------3-|
G|----0-------0----|----0-------0----|----0-------0----|----0-------0----|
D|-5-------5-------|-4-------4-------|-2-------2-------|-0-------0-------|
A|-----------------|-----------------|-----------------|-----------------|
E|-----------------|-----------------|-----------------|-----------------|
  Summer has        come and passed, the innocent can   never last

(refrão)
    C                 Cm                G
E|-----------------|-5-5-5-5-5-5-5-5-|-3-3-3-3-3-3-3-3-3-3-3-3-|
B|-5-5-5-5-5-5-5-5-|-4-4-4-4-4-4-4-4-|-3-3-3-3-3-3-3-3-3-3-3-3-|
G|-5-5-5-5-5-5-5-5-|-5-5-5-5-5-5-5-5-|-4-4-4-4-4-4-4-4-4-4-4-4-|
D|-5-5-5-5-5-5-5-5-|-5-5-5-5-5-5-5-5-|-5-5-5-5-5-5-5-5-5-5-5-5-|
A|-3-3-3-3-3-3-3-3-|-3-3-3-3-3-3-3-3-|-5-5-5-5-5-5-5-5-5-5-5-5-|
E|-----------------|-----------------|-3-3-3-3-3-3-3-3-3-3-3-3-|
  Wake me up        when September     ends

(versos 9)
E|-----------------|-----------------|-----------------|-----------------|
B|-------3-------3-|-------3-------3-|-------3-------3-|-------3-------3-|
G|----0-------0----|----0-------0----|----0-------0----|----0-------0----|
D|-5-------5-------|-5-------5-------|-5-------5-------|-5-------5-------|
A|-----------------|-----------------|-----------------|-----------------|
E|-----------------|-----------------|-----------------|-----------------|
  Like my father's  come to pass,     twenty years has  gone so fast

(refrão)
    C                 Cm                G
E|-----------------|-5-5-5-5-5-5-5-5-|-3-3-3-3-3-3-3-3-3-3-3-3-|
B|-5-5-5-5-5-5-5-5-|-4-4-4-4-4-4-4-4-|-3-3-3-3-3-3-3-3-3-3-3-3-|
G|-5-5-5-5-5-5-5-5-|-5-5-5-5-5-5-5-5-|-4-4-4-4-4-4-4-4-4-4-4-4-| 3x
D|-5-5-5-5-5-5-5-5-|-5-5-5-5-5-5-5-5-|-5-5-5-5-5-5-5-5-5-5-5-5-|
A|-3-3-3-3-3-3-3-3-|-3-3-3-3-3-3-3-3-|-5-5-5-5-5-5-5-5-5-5-5-5-|
E|-----------------|-----------------|-3-3-3-3-3-3-3-3-3-3-3-3-|
  Wake me up        when September     ends

(final)
E|-----10-----10--------10-----10--------10-----10-------10----|
B|-8-8----8-8-------8-8----8-8-------8-8----8-8-------8------8-|
G|-------------------------------------------------------------|
D|-------------------------------------------------------------|
A|-------------------------------------------------------------|
E|-------------------------------------------------------------|
Composição de Billie Joe Armstrong / Tré Cool / Mike Dirnt
144 reproducciones
  • Simplificar cifra
    • ½ Tono
    • A
    • Bb
    • B
    • C
    • Db
    • D
    • Eb
    • E
    • F
    • F#
    • G
    • Ab
  • Adicionar à lista

    0 comentarios

    Ver todos os comentários

    ¿Conseguiste tocar?

    0 Tocaram 0 Ainda não

    Grave um vídeo tocando Wake Me Up When September Ends e nos envie!

    00:00 / 00:00
    outros vídeos desta música
    repetir qualidade Automático
    Outros vídeos desta música
    00:00 / 00:00
    Automático
    Capítulos
    • Início
    • Dicas iniciais
    • Tocando trecho da música
    • Dicas e acordes da intro e primeira parte
    • Tocando introdução e primeira parte
    • Ensinando ritmo da intro e primeira parte
    • Acordes da segunda parte
    • Tocando segunda parte
    • Ensinando ritmo da segunda parte
    • Dicas
    • Tocando terceira parte
    • Ensinando ritmo da terceira parte
    • Encerramento
    • Extras
    OK