Cifra Club

Aprenda

Wake Me Up When September Ends

Green Day

Tab de bajo: Principal
Come in on (1:44)
  
Verse 1 

|-----------------|-----------------| 
|-3-3-3-3-3-3-3-3-|-3-3-3-3-3-3-3-3-| 
|-----------------|-----------------|
|-----------------|-----------------| 

|-----------------|-----------------| 
|-----------------|-----------------| 
|-----------------|-----------------| 
|-3-3-3-3-3-3-3-3-|-3-3-3-3-3-3-3-/-| 
 
Verse 2 
|-----------------------|------------------| 
|-------12--------------|-----12-----------| 
|-10-10----10-10-10-----|-9-9----9-9-9-----| 
|-----------------------|------------------| 
 
|-----------------|-----------7-----| 
|-----9-----------|-----7-----------| 
|-7-7---7-7-7-----|-5-5---5-5-------| 
|-----------------|-----------------| 
 
|-----------------|-----------------| 
|-----------------|-----------------| 
|-3-3-3-3-3-3-3-3-|-3-3-3-3-3-3-3-3-| 
|-----------------|-----------------| 
 
|-----------------|-----------------| 
|-----------------|-----------------| 
|-----------------|-----------------| 
|-3-3-3-3-3-3-3-3-|-3-3-3-3-2-2-2-2-| 
 
Chorus 
|-----------------|-----------------| 
|-----------------|-----------------| 
|-----------------|-2-2-2-2-2-2-2-2-| 
|-0-0-0-0-0-0-0-0-|-----------------| 
 
|-----------------|-----------------| 
|-----------------|-----------------| 
|-3-3-3-3-3-3-3-3-|-----------------| 
|-----------------|-3-3-3-3-2-2-2-2-| 
 
|-----------------|-----------------| 
|-----------------|-----------------| 
|-----------------|-2-2-2-2-2-2-2-2-| 
|-0-0-0-0-0-0-0-0-|-----------------| 
 
|-----------------|-----------------| 
|-----------------|-----------------| 
|-3-3-3-3-3-3-3-3-|-5-5-5-5-5-5-5-5-| 
|-----------------|-----------------| 
 
Verse 2 
|-----------------------|------------------| 
|-------12--------------|-----12-----------| 
|-10-10----10-10-10-----|-9-9----9-9-9-----| 
|-----------------------|------------------| 
 
|-----------------|-----------7-----| 
|-----9-----------|-----7-----------| 
|-7-7---7-7-7-----|-5-5---5-5-------| 
|-----------------|-----------------| 
 
|-----------------|-----------------| 
|-----------------|-----------------| 
|-3-3-3-3-3-3-3-3-|-3-3-3-3-3-3-3-3-| 
|-----------------|-----------------| 
 
|-----------------|-----------------| 
|-----------------|-----------------| 
|-----------------|-----------------| 
|-3-3-3-3-3-3-3-3-|-3-3-3-3-2-2-2-2-| 
 
Solo 
|-----------------|-----------------| 
|-----------------|-----------------| 
|-----------------|-2-2-2-2-2-2-2-2-| 
|-0-0-0-0-0-0-0-0-|-----------------| 
 
|-----------------|-----------------| 
|-----------------|-----------------| 
|-3-3-3-3-3-3-3-3-|-----------------| 
|-----------------|-3-3-3-3-2-2-2-2-| 
 
|-----------------|-----------------| 
|-----------------|-----------------| 
|-----------------|-2-2-2-2-2-2-2-2-| 
|-0-0-0-0-0-0-0-0-|-----------------| 
 
|-----------------|-----------------|-----------------| 
|-----------------|-----------------|-----------------| 
|-3-3-3-3-3-3-3-3-|-5-5-5-5-5-5-5-5-|-5-5-5-5-5-5-5-5-| 
|-----------------|-----------------|-----------------| 
 
|-----------------|-----------------|-----------------| 
|-----------------|-----------------|-----------------| 
|-5-5-5-5-5-5-5-5-|-5-5-5-5-5-5-5-5-|-----------------| 
|-----------------|-----------------|-3~--------------| 
 
Rest, then 
 
Verse 1 
|-----------------|-----------------| 
|-----------------|-----------------| 
|-3-3-3-3-3-3-3-3-|-3-3-3-3-3-3-3-3-| 
|-----------------|-----------------| 
 
|-----------------|-----------------| 
|-----------------|-----------------| 
|-----------------|-----------------| 
|-3-3-3-3-3-3-3-3-|-3-3-3-3-3-3-3-/-| 
 
Verse 2, w/ Variation at end 
|-----------------------|------------------| 
|-------12--------------|-----12-----------| 
|-10-10----10-10-10-----|-9-9----9-9-9-----| 
|-----------------------|------------------| 
 
|-----------------|-----------7-----| 
|-----9-----------|-----7-----------| 
|-7-7---7-7-7-----|-5-5---5-5-------| 
|-----------------|-----------------| 
 
|-----------------|-----------------| 
|-----------------|-----------------| 
|-3-3-3-3-3-3-3-3-|-3-3-3-3-3-3-3-3-| 
|-----------------|-----------------| 
 
|-----------------|-----------------| 
|-----------------|-----------------| 
|-----------------|-----------------| 
|-3-3-3-3-3-3-3-3-|-3-3-3-3-3-3-3-3-| 
 
|-----------------|-----------------| 
|-----------------|-----------------| 
|-3-3-3-3-3-3-3-3-|-3-3-3-3-3-3-3-3-| 
|-----------------|-----------------| 
 
|-----------------|-----------------| 
|-----------------|-----------------| 
|-----------------|-----------------| 
|-3-3-3-3-3-3-3-3-|-3-3-3-3-3-3-3-3-| 
 
|-----------------|-----------------| 
|-----------------|-----------------| 
|-3-3-3-3-3-3-3-3-|-3-3-3-3-3-3-3-3-| 
|-----------------|-----------------| 
 
|-----------------|-----------------| 
|-----------------|-----------------| 
|-----------------|-----------------| 
|-3-3-3-3-3-3-3-3-|-3~--------------|
Composição de Billie Joe Armstrong / Tré Cool / Mike Dirnt
Colaboración y revision:
  • Arnaldo Monteiro
532 reproducciones

0 comentarios

Ver todos os comentários

¿Conseguiste tocar?

8 Tocaram 0 Ainda não

Grave um vídeo tocando Wake Me Up When September Ends e nos envie!

00:00 / 00:00
outros vídeos desta música
repetir qualidade Automático
Outros vídeos desta música
00:00 / 00:00
Automático
OK