Cifra Club

Hangin Tree

Green River

Cifrado: Principal (guitarra y guitarra eléctrica)
Selo Cifra Club: esta cifra foi revisada para atender aos critérios oficiais da nossa Equipe de Qualidade.
tono: Bm
E|---------------------------|---------------------------|
B|---------------------------|---------------------------|
G|---------------------------|---------------------------|
D|---------------------------|---------------------------|
A|---------------------------|---------------------------|
E|-0--0--0-0-0--0-0--0-0-0-0-|-0--0--0-0-0--0-0--0-0-0-0-|

E|---------------------------|---------------------------|
B|---------------------------|---------------------------|
G|---------------------------|---------------------------|
D|---------------------------|---------------------------|
A|---------------------------|---------------------------|
E|-0--0--0-0-0--0-0--0-0-0-0-|-0--0--0-0-0--0-0--0-0-0-0-|

E|---------------------------|---------------------------|
B|---------------------------|---------------------------|
G|---------------------------|---------------------------|
D|---------------------------|---------------------------|
A|---------------------------|---------------------------|
E|-0--0--0-0-0--0-0--0-0-0-0-|-0--0--0-0-0--0-0--0-0-0-0-|

E|---------------------------|---------------------------|
B|---------------------------|---------------------------|
G|---------------------------|---------------------------|
D|---------------------------|---------------------------|
A|---------------------------|---------------------------|
E|-0--0--0-0-0--0-0--0-0-0-0-|-0--0--0-0-0--0-0--0-0-0-0-|

E|---------------------------|---------------------------|
B|---------------------------|---------------------------|
G|---------------------------|---------------------------|
D|---------------------------|---------------------------|
A|---------------------------|---------------------------|
E|-0--0--0-0-0--0-0--0-0-0-0-|-0--0--0-0-0--0-0--0-0-0-0-|

E|-------|------|----------------------|---------------------|
B|-------|------|----------------------|---------------------|
G|-------|------|----------------------|---------------------|
D|-------|------|----------------------|---------------------|
A|-------|------|----------------------|---------------------|
E|-2~--0-|-2~-0-|-2--2--2-0--2-2--2--0-|-2--2--2-0--2-2--2-0-|

E|---------------------------|---------------------------|
B|---------------------------|---------------------------|
G|---------------------------|---------------------------|
D|---------------------------|---------------------------|
A|---------------------------|---------------------------|
E|-0--0--0-0-0--0-0--0-0-0-0-|-0--0--0-0-0--0-0--0-0-0-0-|

E|---------------------------|---------------------------|
B|---------------------------|---------------------------|
G|---------------------------|---------------------------|
D|---------------------------|---------------------------|
A|---------------------------|---------------------------|
E|-0--0--0-0-0--0-0--0-0-0-0-|-0--0--0-0-0--0-0--0-0-0-0-|

E|----------------------|---------------------|
B|----------------------|---------------------|
G|----------------------|---------------------|
D|----------------------|---------------------|
A|----------------------|---------------------|
E|-2--2--2-0--2-2--2--0-|-2--2--2-0--2-2--2-0-|

E|----------------------|---------------------|
B|----------------------|---------------------|
G|----------------------|---------------------|
D|----------------------|---------------------|
A|----------------------|---------------------|
E|-2--2--2-0--2-2--2--0-|-2--2--2-0--2-2--2-0-|

E|---------------------------|---------------------------|
B|---------------------------|---------------------------|
G|---------------------------|---------------------------|
D|---------------------------|---------------------------|
A|---------------------------|---------------------------|
E|-0--0--0-0-0--0-0--0-0-0-0-|-0--0--0-0-0--0-0--0-0-0-0-|

E|---------------------------|---------------------------|
B|---------------------------|---------------------------|
G|---------------------------|---------------------------|
D|---------------------------|---------------------------|
A|---------------------------|---------------------------|
E|-0--0--0-0-0--0-0--0-0-0-0-|-0--0--0-0-0--0-0--0-0-0-0-|

E|----------------------|---------------------|
B|----------------------|---------------------|
G|----------------------|---------------------|
D|----------------------|---------------------|
A|----------------------|---------------------|
E|-2--2--2-0--2-2--2--0-|-2--2--2-0--2-2--2-0-|

E|----------------------|---------------------|
B|----------------------|---------------------|
G|----------------------|---------------------|
D|----------------------|---------------------|
A|----------------------|---------------------|
E|-2--2--2-0--2-2--2--0-|-2--2--2-0--2-2--2-0-|

(1:04)
E|----------------------|---------------------|-------------------|------------------|
B|----------------------|---------------------|-------------------|------------------|
G|----------------------|---------------------|------2--2-1-0-----|------------------|
D|--------9-9-8--7------|-----------------0---|-0--0----------2-1-|------2-2-1-0---0-|
A|-7---7------------9-7-|------10-10-9-8----3-|-------------------|-0--0---------3---|
E|----------------------|-8--8----------------|-------------------|------------------|

E|----------------------|---------------------|-------------------|------------------|
B|----------------------|---------------------|-------------------|------------------|
G|----------------------|---------------------|------2--2-1-0-----|------------------|
D|--------9-9-8--7------|-----------------0---|-0--0----------2-1-|------2-2-1-0---0-|
A|-7---7------------9-7-|------10-10-9-8----3-|-------------------|-0--0---------3---|
E|----------------------|-8--8----------------|-------------------|------------------|

[Verse]
E|----------------------|---------------------|-------------------|------------------|
B|----------------------|---------------------|-------------------|------------------|
G|----------------------|---------------------|------2--2-1-0-----|------------------|
D|--------9-9-8--7------|-----------------0---|-0--0----------2-1-|------2-2-1-0---0-|
A|-7---7------------9-7-|------10-10-9-8----3-|-------------------|-0--0---------3---|
E|----------------------|-8--8----------------|-------------------|------------------|

E|----------------------|---------------------|-------------------|------------------|
B|----------------------|---------------------|-------------------|------------------|
G|----------------------|---------------------|------2--2-1-0-----|------------------|
D|--------9-9-8--7------|-----------------0---|-0--0----------2-1-|------2-2-1-0---0-|
A|-7---7------------9-7-|------10-10-9-8----3-|-------------------|-0--0---------3---|
E|----------------------|-8--8----------------|-------------------|------------------|

[Chorus]
E|-----|-----|-------|----------------------|--------------------------------|
B|-----|-----|-------|----------------------|--------------------------------|
G|-9---|-5---|-7-----|-2--5--2-5--2-5--2----|--------------------------------|
D|-9---|-5---|-7-----|-2--------------------|--------------------------------|
A|-7---|-3---|-5-----|-0-----------------0--|--------------------------------|
E|-----|-----|-------|----------------------|--------------------------------|

[Verse]
E|---------------------|---------------------|---------------------|---------------------|
B|---------------------|---------------------|---------------------|---------------------|
G|---------------------|---------------------|---------------------|---------------------|
D|-------9-9-8--7------|-------9-9-8--7------|-------9-9-8--7------|-------9-9-8--7------|
A|-7--7------------9-8-|-7--7------------9-8-|-7--7------------9-8-|-7--7------------9-8-|
E|---------------------|---------------------|---------------------|---------------------|

E|---------------------|---------------------|---------------------|---------------------|
B|---------------------|---------------------|---------------------|---------------------|
G|---------------------|---------------------|---------------------|---------------------|
D|-------9-9-8--7------|-------9-9-8--7------|-------9-9-8--7------|-------9-9-8--7------|
A|-7--7------------9-8-|-7--7------------9-8-|-7--7------------9-8-|-7--7------------9-8-|
E|---------------------|---------------------|---------------------|---------------------|

[Chorus]
E|----------------------|---------------------|-------------------|------------------|
B|----------------------|---------------------|-------------------|------------------|
G|----------------------|---------------------|------2--2-1-0-----|------------------|
D|--------9-9-8--7------|-----------------0---|-0--0----------2-1-|------2-2-1-0---0-|
A|-7---7------------9-7-|------10-10-9-8----3-|-------------------|-0--0---------3---|
E|----------------------|-8--8----------------|-------------------|------------------|

E|----------------------|---------------------|-------------------|------------------|
B|----------------------|---------------------|-------------------|------------------|
G|----------------------|---------------------|------2--2-1-0-----|------------------|
D|--------9-9-8--7------|-----------------0---|-0--0----------2-1-|------2-2-1-0---0-|
A|-7---7------------9-7-|------10-10-9-8----3-|-------------------|-0--0---------3---|
E|----------------------|-8--8----------------|-------------------|------------------|

[Solo]
E|----------|------------------|------------------|---------------|
B|----------|------------------|--------3-----2---|-2-2-2---------|
G|----------|------------------|---4-2--2-2---2---|-2-2---4-------|
D|----------|-5--4--5--5/7-5-4-|-2-4----2-2-2-2-2-|-0-0-----------|
A|-7--5-7-9-|------------------|------------------|---------------|
E|----------|------------------|------------------|---------------|

E|----------------|---------------|---------------------|--------------------|
B|----------------|---------6---6-|-8b10r8-6---6----6-8-|-8b10r8p6---6-5---5-|
G|----------------|---4-5/7---7---|----------7----7-----|----------7-----7---|
D|----------4-5-4-|-5-------------|---------------------|--------------------|
A|-7--7-5-7-------|---------------|---------------------|--------------------|
E|----------------|---------------|---------------------|--------------------|

E|----7/10----10-|-12/15-12-15-15b17-15-12-|-10h12p10----10------------|----------------|
B|--8------12----|-------------------------|----------12----12-11-10\8-|-10b11r10-8---8-|
G|---------------|-------------------------|---------------------------|------------9---|
D|---------------|-------------------------|---------------------------|----------------|
A|---------------|-------------------------|---------------------------|----------------|
E|---------------|-------------------------|---------------------------|----------------|

E|----7-10-9-7-|--12-----------|---------------|--------------------|
B|---8---------|-----12\10\8\7-|-8p7---7-8p7---|-7h8p7h8p7h8p7p5----|
G|-/9----------|---------------|-----7-------7-|--------------------|
D|-------------|---------------|---------------|--------------------|
A|-------------|---------------|---------------|--------------------|
E|-------------|---------------|---------------|--------------------|

[Verse]
E|---------------------|---------------------|---------------------|-----------------------|
B|---------------------|---------------------|---------------------|-----------------------|
G|---------------------|---------------------|---------------------|-----------------------|
D|-------9-9-8--7------|-------9-9-8--7------|-------9-9-8--7------|-----------------0h1h2-|
A|-7--7------------9-8-|-7--7------------9-8-|-7--7------------9-8-|-0--3--0-3-0--3--------|
E|---------------------|---------------------|---------------------|-----------------------|

E|---------------------|---------------------|---------------------|-----------------------|
B|---------------------|---------------------|---------------------|-----------------------|
G|---------------------|---------------------|---------------------|-----------------------|
D|-------9-9-8--7------|-------9-9-8--7------|-------9-9-8--7------|-----------------0h1h2-|
A|-7--7------------9-8-|-7--7------------9-8-|-7--7------------9-8-|-0--3--0-3-0--3--------|
E|---------------------|---------------------|---------------------|-----------------------|

E|---------------------|---------------------|---------------------|-----------------------|
B|---------------------|---------------------|---------------------|-----------------------|
G|---------------------|---------------------|---------------------|-----------------------|
D|-------9-9-8--7------|-------9-9-8--7------|-------9-9-8--7------|-----------------------|
A|-7--7------------9-8-|-7--7------------9-8-|-7--7------------9-8-|----5----5----5--7h8h9-|
E|---------------------|---------------------|---------------------|-7-----7---7-----------|

E|---------------------|---------------------|-----------------------|-----------------------|
B|---------------------|---------------------|-----------------------|-----------------------|
G|---------------------|---------------------|-----------------------|-----------------------|
D|-------9-9-8--7------|-------9-9-8--7------|-----------------------|-----------------------|
A|-7--7------------9-8-|-7--7------------9-8-|----5----5----5--7h8h9-|----5----5----5--7h8h9-|
E|---------------------|---------------------|-7-----7---7-----------|-7-----7---7-----------|

E|---------------------|---------------------|---------------------|-----------------------|
B|---------------------|---------------------|---------------------|-----------------------|
G|---------------------|---------------------|---------------------|-----------------------|
D|-------9-9-8--7------|-------9-9-8--7------|-------9-9-8--7------|-----------------0h1h2-|
A|-7--7------------9-8-|-7--7------------9-8-|-7--7------------9-8-|-0--3--0-3-0--3--------|
E|---------------------|---------------------|---------------------|-----------------------|

E|---------------------|---------------------|-----------------------|-----------------------|
B|---------------------|---------------------|-----------------------|-----------------------|
G|---------------------|---------------------|-----------------------|-----------------------|
D|-------9-9-8--7------|-------9-9-8--7------|-----------------0h1h2-|-----------------0h1h2-|
A|-7--7------------9-8-|-7--7------------9-8-|-0--3--0-3-0--3--------|-0--3--0-3-0--3--------|
E|---------------------|---------------------|-----------------------|-----------------------|

[Outro]
(3:15)
E|------|------|------|------------------|-------------------------------|
B|------|------|------|------------------|-------------------------------|
G|------|-7----|-4----|------------------|--------------------------9----|
D|-4----|-7----|-4----|-----------7-9b11-|-8h9p8h9p8h9p8h9p8h9p8h9-------|
A|-4----|-5----|-2----|-7-8-9-7-9--------|-------------------------------|
E|-2----|------|------|------------------|-------------------------------|

E|-------------|-------------------|----------|
B|-------------|-------------------|----------|
G|-------------|-------------------|----------|
D|-9b10r9-7----|-------------------|----------|
A|----------9--|-5p4h5p4h5p4h5p4h5-|-4-3-2----|
E|-------------|-------------------|----------|

E|-------------------|---------------------|----------------------|-------------|
B|-------------------|---------------------|----------10-12-12b14-|-------12b14-|
G|-------------------|---------------------|-/9-11-11-------------|-------------|
D|-------------------|--------------2-4--4-|----------------------|-------------|
A|---0-0---0---0---0-|-2p0-2p0-2-4---------|----------------------|-------------|
E|-2-----2---2---2---|---------------------|----------------------|-------------|

E|---------------------------|------------------|-------|--------|
B|-12b14r12p10----10---------|------------------|-------|--------|
G|-------------11----11-9h11p| 9----9----9-11-11-|-11-11-|-11-11--|
D|---------------------------|--11---11---------|-------|--------|
A|---------------------------|------------------|-------|--------|
E|---------------------------|------------------|-------|--------|

E|---------------------|---------------------|---------------------|---------------------|
B|---------------------|---------------------|---------------------|---------------------|
G|---------------------|---------------------|---------------------|---------------------|
D|---------------------|---------------------|---------------------|---------------------|
A|-----0---0---0-2h3h4-|-----0---0---0-2h3h4-|-----0---0---0-2h3h4-|-----0---0---0-2h3h4-|
E|-2-2---2---2---------|-2-2---2---2---------|-2-2---2---2---------|-2-2---2---2---------|

E|---------------------|---------------------|---------------------|---------------------|
B|---------------------|---------------------|---------------------|---------------------|
G|---------------------|---------------------|---------------------|---------------------|
D|---------------------|---------------------|---------------------|---------------------|
A|-----0---0---0-2h3h4-|-----0---0---0-2h3h4-|-----0---0---0-2h3h4-|-----0---0---0-2h3h4-|
E|-2-2---2---2---------|-2-2---2---2---------|-2-2---2---2---------|-2-2---2---2---------|

E|----------------------|---------------------|
B|----------------------|---------------------|
G|----------------------|---------------------|
D|----------------------|---------------------|
A|----------------------|---------------------|
E|-2--2--2-0--2-2--2--0-|-2--2--2-0--2-2--2-0-|

E|----------------------|---------------------|
B|----------------------|---------------------|
G|----------------------|---------------------|
D|----------------------|---------------------|
A|----------------------|---------------------|
E|-2--2--2-0--2-2--2--0-|-2--2--2-0--2-2--2-0-|

E|----------------------|---------------------|
B|----------------------|---------------------|
G|----------------------|---------------------|
D|----------------------|---------------------|
A|----------------------|---------------------|
E|-2--2--2-0--2-2--2--0-|-2--2--2-0--2-2--2-0-|

E|----------------------|----------------------|-----------------|
B|----------------------|----------------------|-----------------|
G|----------------------|----------------------|-----------------|
D|----------------------|----------------------|-----------------|
A|----------------------|----------------------|-----------------|
E|-2--2--2-0--2-2--2--0-|-2-2-2-2-2-0--2---12\-|-2-2-2-2-2-0--2--|


************************************

| ~  Vibrato
| /  Slide up
| p  Pull-off
| r  Release
| b  Bend
| h  Hammer-on
| \  Slide down
00:00 / 00:00
Otros videos de esta canción
Repetir
Otros videos de esta canción
13 exhibiciones
    • ½ Tono
    • Am
    • Bbm
    • Bm
    • Cm
    • C#m
    • Dm
    • Ebm
    • Em
    • Fm
    • F#m
    • Gm
    • G#m
  • Agregar a la lista

Afinación de cifrado

Afinador online

    00:00 / 00:00
    OK