Cifra Club

Together Well Never Be

Green River

Cifrado: Principal (guitarra y guitarra eléctrica)
Selo Cifra Club: esta cifra foi revisada para atender aos critérios oficiais da nossa Equipe de Qualidade.
tono: E
B||--------------------------------||
G||-7-777-------------6-666--------||
D||-7-777-8-888-5-555-6-666--------|| Intro x2 ( live version )
A||-5-555-8-888-5-555-4-444--------||
E||-------6-666-3-333--------------||

e||---------------------------||
B||---------------------------||
G||---------------------------||
D||---------------------------|| Intro x2
A||---5-6---------------------||
E||-3------66-8888------------||


e||-------------------------------------------------------------||
B||-------------------------------------------------------------||
G||-7-7xxx7-77xxx-8-8xxx8-88-5-5xxx-5-55xxx-6-6xxx6-66xxx-------||
D||-7-7xxx7-77xxx-8-8xxx8-88-5-5xxx-5-55xxx-6-6xxx6-66xxx-------|| Chorus X2
A||-5-5xxx5-55xxx-6-6xxx6-66-3-3xxx-3-33xxx-4-4xxx4-44xxx-------||
E||-------------------------------------------------------------||


e||-----------------------------------------------||
B||-----------------------------------------------||
G||-----------------6b--------------6/7-6---------||
D||---5-------------6b---5----------6/7-6---------|| 
A||---5-P.M(x15)----4b---5-P.M(x15)-4/5-4---------||
E||---3------------------3------------------------||


e||-------------------------------------------------------------||
B||-------------------------------------------------------------||
G||-7-7xxx7-77xxx-8-8xxx8-88-5-5xxx-5-55xxx-6-6xxx6-66xxx-------||
D||-7-7xxx7-77xxx-8-8xxx8-88-5-5xxx-5-55xxx-6-6xxx6-66xxx-------|| Chorus X2
A||-5-5xxx5-55xxx-6-6xxx6-66-3-3xxx-3-33xxx-4-4xxx4-44xxx-------||
E||-------------------------------------------------------------||

e||-----------------------------------------------||
B||-----------------------------------------------||
G||---77777--------------66666--------------------||
D||---77777-88888--55555-66666--------------------|| X2
A||---55555-88888--55555-44444--------------------||
E||---------66666--33333--------------------------||

e||-----------------------------------------------||
B||-----------------------------------------------||
G||---77777/66666-555/666-------------------------||
D||---77777/66666-555/666-------------------------|| 
A||---55555/44444-333/444-------------------------||
E||-----------------------------------------------||

e||-----------------------------------------------||
B||-----------------------------------------------||
G||-----------------------------------------------||
D||-----------------------------------------------|| 
A||------3-555-444-333-4-------3-555-444-5-4------||
E||--3-6-----------------3-6-----------------6-3--||



************************************

| x  Dead note
| b  Bend
| /  Slide up
 
00:00 / 00:00
Otros videos de esta canción
Repetir
Otros videos de esta canción
1 exhibiciones
    • ½ Tono
    • A
    • Bb
    • B
    • C
    • Db
    • D
    • Eb
    • E
    • F
    • F#
    • G
    • Ab
  • Agregar a la lista

Afinación de cifrado

Afinador online

    00:00 / 00:00
    OK