Cifra Club

Soon Forward

Gregory Isaacs

Tab de bajo: Principal
The Two Riddims, ( slight variations during the song and dub.)

G--5----------------5----------------------------------|
D----5-0-5-7----------5-0-5-7--------------------------|
A------------5----------------5------------------------|
E-------------------------------5555-------------------|


G----------------------------------------------------|
D-----5---------------------5------------------------|
A----------5----5---------------55----5--------------|
E---5---5-----5----------5----5-----5----------------|


Great Song.
Composición de Gregory Isaacs
45 vistas

0 comentarios

Ver todos los comentarios

¿Lograste tocar?

0 Tocaron 0 Aún no

¡Graba un video tocando Soon Forward y envíanoslo!

00:00 / 00:00
Outros vídeos desta música
Repetir Calidad Automático
Outros vídeos desta música
00:00 / 00:00
Automático
OK