Cifra Club

Universal Tribulation

Gregory Isaacs

Tab de bajo: Principal
Intro/Refrão:

G|------------------|---------------------| 
D|------------------|-----------5---------| 
A|-----------5------|-3-3--6-6-----3/5-5--| 
E|-3-3--6-6-----3---|---------------------| 

Versos:

G|------------------|---------------------| 
D|------------------|-----------------5---| 
A|---------------5--|-3333333-3-3-6-------| 
E|-3-3--33-3-6------|---------------------|
Composición de Minha Mãe
Colaboración y revisión:
  • Everton Damascena
6 vistas

0 comentarios

Ver todos los comentarios

¿Lograste tocar?

0 Tocaron 0 Aún no

¡Graba un video tocando Universal Tribulation y envíanoslo!

00:00 / 00:00
Outros vídeos desta música
Repetir Calidad Automático
Outros vídeos desta música
00:00 / 00:00
Automático
OK