Cifra Club

Age Of Man

Greta Van Fleet

Cifrado: Principal (guitarra y guitarra eléctrica)
tono: A
[Intro]

F#m            E        D       F#m
 In an age of darkness light appears
F#m             E      D        E
 And it wards away the ancient fears
F#m           E      D       F#m
 March to the anthem of the heart
F#m              E      D         E
 To a brand new day a brand new start

    F#m E   D9
E|--2---0---0--|
B|--2---0---3--|
G|--2---1---2--|
D|--4---2---0--|
A|--4---2------|
E|--2---0------|

    D9
E|--0--------------|
B|--3--------------|
G|--2-----2p1------|
D|--0---------4-2--|
A|-----------------|
E|-----------------|

E|----------------------------------------------|
B|--------3-------------------------------------|
G|--------2-------2-------------------2p1-------|
D|--4--2--0--4----2--4----------2--4-------4~~--|
A|--4--2-----4----0--4----2--4------------------|
E|--2--0-----2-------2--------------------------|

E|-----------------------------------------------|
B|--------3--------------------------------------|
G|--------2--1------2--2--2--1----2--2--2--1-----|
D|--4--2--0--2------2-------------2-----------2--|
A|--4--2-----2------2-------------2--------------|
E|--2--0-----0------0-------------0--------------|

[Primeira Parte]

E|----------------------------------------------|
B|--------3-------------------------------------|
G|--------2-------2-------------------2p1-------|
D|--4--2--0--4----2--4----------2--4-------4~---|
A|--4--2-----4----0--4----2--4------------------|
E|--2--0-----2-------2--------------------------|

E|-----------------------------------------------|
B|--------3--------------------------------------|
G|--------2--1------2--2--2--1----2--2--2--1-----|
D|--4--2--0--2------2-------------2-----------2--|
A|--4--2-----2------2-------------2--------------|
E|--2--0-----0------0-------------0--------------|

 F#m      E       D         F#m  A  F#m
To wonderlands of ice and snow
F#m        E          D        E   E4  E
In desert heat where nothing grows
F#m        E       D        F#m  A  F#m
A tree of life in rain and sun
 F#m           E       D      E  E4  E
To reach the sky it's just begun

[Pré-Refrão]

E|--------------------------------------2--0-------|
B|--------3------------------------3----------2~---|
G|--------2-----2p1----------------2---------------|
D|--4--2--0----------4--2----4--2--0---------------|
A|--4--2---------------------4--2------------------|
E|--2--0---------------------2--0------------------|

E|----------------------------------------------|
B|--------3------------------------3---------3--|
G|--------2-----2p1----------------2---------2--|
D|--4--2--0----------4--2----4--2--0---------0--|
A|--4--2---------------------4--2---------------|
E|--2--0---------------------2--0---------------|

[Refrão]

A          F#m           E      E4   E
And as we came into the clear
A          F#m                  E       E4   E
To find ourselves where we are here
A           F#m               E         E4   E
Who is the wiser to help us steer?
A            F#m                  E     E4   E
And will we know when the end is near?

    D9  D9
E|--0------0---------------|
B|--3------3---------------|
G|--2------2------2p1------|
D|--0------0----------4-2--|
A|-------------------------|
E|-------------------------|

E|----------------------------------------------|
B|--------3-------------------------------------|
G|--------2-------2-------------------2p1-------|
D|--4--2--0--4----2--4----------2--4-------4~~--|
A|--4--2-----4----0--4----2--4------------------|
E|--2--0-----2-------2--------------------------|

E|-----------------------------------------------|
B|--------3--------------------------------------|
G|--------2--1------2--2--2--1----2--2--2--1-----|
D|--4--2--0--2------2-------------2-----------2--|
A|--4--2-----2------2-------------2--------------|
E|--2--0-----0------0-------------0--------------|

[Segunda Parte]

E|----------------------------------------------|
B|--------3-------------------------------------|
G|--------2-------2-------------------2p1-------|
D|--4--2--0--4----2--4----------2--4-------4~---|
A|--4--2-----4----0--4----2--4------------------|
E|--2--0-----2-------2--------------------------|

E|-----------------------------------------------|
B|--------3--------------------------------------|
G|--------2--1------2--2--2--1----2--2--2--1-----|
D|--4--2--0--2------2-------------2-----------2--|
A|--4--2-----2------2-------------2--------------|
E|--2--0-----0------0-------------0--------------|

 F#m      E       D      F#m  A  F#m
A beauty lives in every soul
  F#m         E        D         E  E4  E
The more you love the more you know
  F#m          E        D         F#m  A  F#m
They pass the torch and it still burns
F#m             E        D       E   E4  E
Once children then it's now our turn

[Pré-Refrão]

E|--------------------------------------2--0-------|
B|--------3------------------------3----------2~---|
G|--------2-----2p1----------------2---------------|
D|--4--2--0----------4--2----4--2--0---------------|
A|--4--2---------------------4--2------------------|
E|--2--0---------------------2--0------------------|

E|----------------------------------------------|
B|--------3------------------------3---------3--|
G|--------2-----2p1----------------2---------2--|
D|--4--2--0----------4--2----4--2--0---------0--|
A|--4--2---------------------4--2---------------|
E|--2--0---------------------2--0---------------|

[Refrão]

A          F#m           E      E4   E
And as we came into the clear
A          F#m                  E       E4   E
To find ourselves where we are here
A           F#m               E         E4   E
Who is the wiser to help us steer?
A            F#m                  E     E4   E
And will we know when the end is near?

[Interlúdio]

E|-----------------------------------------------|
B|-----------------------------------------------|
G|--4--6--7--9--11------4--6--7--9--4-----6---7--|
D|--4--6--7--9--11------4--6--7--9--4-----6---7--|
A|--2--4--5--7--9-------2--4--5--7--2-----4---5--|
E|-----------------------------------------------|

( Bm  C#m  D  E )
( F#m )
( Bm  C#m  D  E )
( B4  C#m  D )

[Refrão]

A          F#m           E      E4   E
And as we came into the clear
A          F#m                  E       E4   E
To find ourselves where we are here
A           F#m               E         E4   E
Who is the wiser to help us steer?
A            F#m                  E     E4   E
And will we know when the end is near?

[Final] A  F#m  E  E4 E
        A  F#m  E  E4 E
        A  F#m  E  E4 E
        A  F#m  E  E4 E 
D9
Composición de Daniel Robert Wagner / Jacob Thomas Kiszka / Joshua Michael Kiszka / Samuel Francis Kiszka
Colaboración y revisión:
  • Taino Vieira
272 vistas
    • ½ Tono
    • A
    • Bb
    • B
    • C
    • Db
    • D
    • Eb
    • E
    • F
    • F#
    • G
    • Ab
  • Agregar a la lista

    0 comentarios

    Ver todos los comentarios

    ¿Lograste tocar?

    3 Tocaron 0 Aún no

    ¡Graba un video tocando Age Of Man y envíanoslo!

    00:00 / 00:00
    Outros vídeos desta música
    Repetir Calidad Automático
    Outros vídeos desta música
    00:00 / 00:00
    Automático
    OK