Cifra Club

Boundary

Grinspoon

Cifrado: Principal (guitarra y guitarra eléctrica)
tono: D
Album: Guide To Better Living
Tabbed By: Alex Trimboli

~ = Vibrato
\ = Slide Down
/ = Slide Up
^^^ = Bend String Slowly
p = Pull Off


DROP D TUNNING (DADGBe)


The Whole Song is played with one guitar
except for the Bridge, where a second
guitar comes in.


INTRO x3 (00:00 - 00:09)

e|-------------------------------|   
B|-------------------------------|
G|--7-5-5--7-5-5--7--6-5--7-5-5--|   
D|--7-5-5--7-5-5--7--6-5--7-5-5--|
A|--5-3-3--5-3-3--5--4-3--5-3-3--|
D|-------------------------------|

e|-------------------|   
B|-------------------|
G|--7-5-5--7-5-5--7--|   
D|--7-5-5--7-5-5--7--|
A|--5-3-3--5-3-3--5--|
D|-------------------|


VERSE x6 (00:09 - 00:36)

e|--------------------------------------------|   
B|--------------------------------------------|
G|--7-7/10-10-7-7/10-10-5-5-555---------------|   
D|--7-7/10-10-7-7/10-10-5-5-555-3-33-3-3-3-3--|
A|--5-5/8--8--7-5/8--8--3-3-333-3-33-3-3-3-3--|
D|------------------------------3-33-3-3-3-3--|


CHORUS x1 (00:36 - 00:45)

e|------------------------------------|   
B|------------------------------------|
G|----------55555------------5555555--|   
D|--5----3--55555-10-5----3--5555555--|
A|--5----3--33333-10-5----3--3333333--|
D|--5----3--------10-5----3-----------|


INTRO x3 (00:45 - 00:54)

VERSE x4 (00:54 - 01:12)

CHORUS x1 (1:12 - 1:21)

INTRO x3 (1:21 - 1:30)


BRIDGE x1 (1:20 - 1:47) 

Guitar 1
e|-------------------------|   x4
B|-------------------------|
G|--\-----------5-5--------|   
D|--\----0--3-3-5-5-3-5-3--|
A|--\----0--3-3-3-3-3-5-3--|
D|-------0--3-3-----3-5-3--|

Guitar 2
e|------------------------------------------------|   
B|------------------------------------------------|
G|------------------------------------------------|   
D|--5-3-----5~--5-3--------------3/---------^^^3--|
A|------3-5----------5p3-5-3-3-5----3-5-3-5-------|
D|------------------------------------------------|

VERSE x2 (1:47 - 1:56)

BASS FILL (Verse Riff) (1:56 - 2:13)

* Before Chorus a reverse Pickslide is done
on strings E A & D ... moving the pick in the 
reverse direction from a normal pickslide while
moving down the 3 strings accordingly, to go
from a lower, to a higher pitch screech.

CHORUS x 1 (2:13 - 2:22)

INTRO (Outro) x3 (2:22 - 2:34)
00:00 / 00:00
Otros videos de esta canción
Repetir
Otros videos de esta canción
Composición de Grinspoon
43 exhibiciones
    • ½ Tono
    • A
    • Bb
    • B
    • C
    • Db
    • D
    • Eb
    • E
    • F
    • F#
    • G
    • Ab
  • Agregar a la lista
    00:00 / 00:00
    OK