Cifra Club

You Raise Me Up

Josh Groban

Tablatura: Principal (guitarra)
Tom: D
[Intro] C  F/C  C  F9  G
        F/C  C  F/C
        C  G  C

E|------------------------------------------|
B|-----1-3/5~-1-1/3-----------------5-5/8~--|
G|-0-0--------------5--5p2-0-5--4-5---------|
D|------------------------------------------|
A|------------------------------------------|
E|------------------------------------------|

E|---3/5-3------------------7-7/8-----------|
B|-1-------1/5-3h5p3--6/8-8-----------------|
G|------------------------------------------|
D|------------------------------------------|
A|------------------------------------------|
E|------------------------------------------|

E|---5/7-5-3h5p3---3------------------------|
B|-6-------------6---1~--1-1-3-3/5~---------|
G|------------------------------------------|
D|------------------------------------------|
A|------------------------------------------|
E|------------------------------------------|

E|------------------------------------------|
B|-5/8-5--1h3-1-1~--3-1---------------------|
G|------------------------------------------|
D|------------------------------------------|
A|------------------------------------------|
E|------------------------------------------|

[Primeira Parte]

           C        F/C             C
When I am down and, oh my soul, so weary
                        F/C               G
When troubles come and my heart burdened be
             F/C                       C      F/C
Then, I am still and wait here in the silence
           C        G               C
Until you come and sit awhile with me

[Refrão]

             Am7    F/C             C        G
You raise me up, so I can stand on mountains
             Am7     F/C            C   G
You raise me up, to walk on stormy seas
        C         F/C            C        F/C
I am strong, when I am on your shoulders
             C      G               C
You raise me up to more than I can be

[Solo] D  G  D  G
       A  G  D  G
       D  A  D

E|------------------------------------------|
B|-----3-5/7~-3-3/5-----------------7-7/10~-|
G|-2-2--------------7--7p4-2-7--6-7---------|
D|------------------------------------------|
A|------------------------------------------|
E|------------------------------------------|

E|---5/7-5--------------------9-9/10--------|
B|-3-------3/7-5h7p5--8/10-10---------------|
G|------------------------------------------|
D|------------------------------------------|
A|------------------------------------------|
E|------------------------------------------|

E|---7/9-7-5h7p5---5------------------------|
B|-8-------------8---3~--3p2-3-5-5/7~-------|
G|------------------------------------------|
D|------------------------------------------|
A|------------------------------------------|
E|------------------------------------------|

E|------------------------------------------|
B|-7/10-7--5p3-5-3--------------------------|
G|------------------------------------------|
D|------------------------------------------|
A|------------------------------------------|
E|------------------------------------------|

[Refrão]

             Bm7    G               D        A
You raise me up, so I can stand on mountains
             Bm7     G              D  A
You raise me up, to walk on stormy seas
        D         G              D       G
I am strong, when I am on your shoulders
             D      A               D  G  D
You raise me up to more than I can be

[Refrão]

             Cm7    Ab              Eb       Bb
You raise me up, so I can stand on mountains
             Cm7     Ab             Eb  Bb
You raise me up, to walk on stormy seas
        Eb        Ab             Eb      Ab
I am strong, when I am on your shoulders
             Eb     Bb              Eb 
You raise me up to more than I can be

             Cm7    Ab              Eb       Bb
You raise me up, so I can stand on mountains
             Cm7     Ab             Eb  Bb
You raise me up, to walk on stormy seas
        Eb        Ab             Eb      Ab
I am strong, when I am on your shoulders
             Eb     Bb              Eb 
You raise me up to more than I can be
             Eb     Bb          Bb  Eb 
You raise me up to more than I can be
reproducciones 6.621
Acordes para:
    Composição: Brendan Graham / Rolf Løvland Colaboración y revision:

    0 comentarios

    mostrar más comentarios

    ¿Conseguiste tocar?

    4 tocaron 5 aún no

    ¡Graba un vídeo tocando You Raise Me Up y envianoslo!

    00:00 / 00:00
    outros vídeos desta música
    repetir qualidade Automático
    Outros vídeos desta música
    00:00 / 00:00
    Automático
    OK