Cifra Club

Clearing

Grouper

Cifrado: Principal (guitarra y guitarra eléctrica)
Selo Cifra Club: esta cifra foi revisada para atender aos critérios oficiais da nossa Equipe de Qualidade.
tono: G
                x4
    G                        Bm
E|----------------|------------------------------------------|
B|-----00---0-----|----------00------------------------------|
G|---2----2---2---|-----0-2-----2------------------------2---|
D|----------0-----|---4------------4-------4-----4----4------|
A|----------------|-----------2---------2-----2-----2--------|
E|---3------------|---3--------------------------------------|

Chorus (x2) 
    G                   C
E|---------------------0-----------------|
B|---000-3-0-----00-33---------------0---|
G|------------22------------0-----0------|
D|-----------------------2-----2---------|
A|-----------------------3-----3---------|
E|---3---3---3---------------------------|

Bridge  (x2)

    D                 C
E|--------------------------------------|
B|-----00-3--33-1-0---------------------|
G|---2--------------22-0----0-----0--0--|
D|---0--------------------2----2--------|
A|---------------------3--3----3--------|
E|--------------------------------------|
Otros videos de esta canción
    8 exhibiciones
      • ½ Tono
      • A
      • Bb
      • B
      • C
      • Db
      • D
      • Eb
      • E
      • F
      • F#
      • G
      • Ab
    • Agregar a la lista

    Afinação da cifra

    Afinador online

      Ops (: Contenido disponible solo en portugués.
      OK