Cifra Club

Driving

Grouper

Cifrado: Principal (guitarra y guitarra eléctrica)
Selo Cifra Club: esta cifra foi revisada para atender aos critérios oficiais da nossa Equipe de Qualidade.
tono: C
[0:00-0:44]
           Fmaj7          G        Fmaj7 G
E|------------------------0--------------------------|
B|---1-0-1---------0-1-3-----3-1-0-------------------|
G|------------2---------------------2-0--2-0---------|
D|----------3-----------------------3----0-----------|
A|----------3-----------------------3----2-----------|
E|-(3)------1-------------3---------1----3-----------| x2

[0:45-1:27]
        F5                  Em              F5            G          F5
E|----------------0-1-3-0-1-3---0-----0-3-0---------3-0-1-3----0-3-0--------|
B|-1-0-1--------3-----------0-------3-------------1-------0--------------3--|
G|--------------------------0-----------------------------0-----------------|
D|-------3------------------2---------------3-------------0----------3------|
A|-------3------------------2---------------3-------------2-----------------|
E|-------1------------------0---------------1-------------3----------1------|

[1:28-2:05]
         F5              Fmaj7            F5              Fmaj7
E|------------3----------------3----------------3---------------3-|
B|-1-0-1------5----1-0-1-------5----1-0-1-------5---1-0-1-------5-|
G|-----------------------2--------------------------------2-------|
D|-------3---------------3----------------3---------------3-------|
A|-------3---------------3----------------3---------------3-------|
E|-------1-------3-------1--------3-------1-------3-------1-------|

[2:06-2:45]
           Fmaj7          G        Fmaj7 G
E|-----------------------0--------------------------|
B|--1-0-1---------0-1-3-----3-1-0-------------------|
G|-----------2---------------------2-0--2-0---------|
D|---------3-----------------------3----0-----------|
A|---------3-----------------------3----2-----------|
E|---------1-------------3---------1----3-----------| x2

[2:46-3:48]
                       Em           F5           G            F5
E|-----------0-1-3-0-1-3-0----0-3-0--------3-0-1-3--0--0-3-0-----|
B|-1-0-1---3-----------0----3------------1-------0---------------|
G|---------------------0-------------------------0---------------|
D|---------------------2------------3------------0------------3--|
A|---------------------2------------3------------2---------------|
E|-------1-------------0------------1------------3------------1--|


I am a child
It is a gift that my mother gave me

Watching the pavement
Stretch out and fade
You gave me

Along the highway
They look to see
The nature of the crash
To see the body

And it is time
We're on our way
I wonder
Whether you realize
How much I love you

Today, the land
Is slightly wider than the sky

And we are driving
Oh, life
Life in the tunnel
Made of the sun frame
00:00 / 00:00
Otros videos de esta canción
Repetir
Otros videos de esta canción
3 exhibiciones
    • ½ Tono
    • A
    • Bb
    • B
    • C
    • Db
    • D
    • Eb
    • E
    • F
    • F#
    • G
    • Ab
  • Agregar a la lista

Afinación de cifrado

Afinador online

    00:00 / 00:00
    OK