Cifra Club

Heavy Water Id Rather Be Sleeping

Grouper

Cifrado: Principal (guitarra y guitarra eléctrica)
Selo Cifra Club: esta cifra foi revisada para atender aos critérios oficiais da nossa Equipe de Qualidade.
tono: G
Intro/Verses (just listen for the strumming pattern.)
E|--------------------------------------------------------------------|
B|--------0---0------------------------0---0--------------------------|
G|-------0---0------------------------0---0--------------------------|
D|--------0---0------------------------0---0--------------------------|
A|--------7---7-----------------------/9---9--------------------------|
E|--------7---7-----------------------/9---9--------------------------|

E|--------------------------------------------------------------------|
B|-------0---0-----------------------0---0----------------------------|
G|------0---0-----------------------0---0----------------------------|
D|-------0---0-----------------------0---0----------------------------|
A|-------5---5-----------------------2---2----------------------------|
E|-------5---5-----------------------2---2----------------------------|

Chorus
E|--------------------------------------------------------------------|
B|--------0---------------------------0-------------------------------|
G|-------0---------------------------0-------------------------------|
D|--------0---------------------------0-------------------------------|
A|--------5---------------------------2-------------------------------|
E|--------5---------------------------2-------------------------------|

E|--------------------------------------------------------------------|
B|-------0-------------------------0----------------------------------|
G|------0-------------------------0----------------------------------|
D|-------0-------------------------0----------------------------------|
A|-------0-------------------------7----------------------------------|
E|-------0-------------------------7----------------------------------|

End it like:

E|--------------------------------------------------------------------|
B|--------0--------------0-------------------0~-----------------------|
G|-------0--------------0-------------------0~-----------------------|
D|--------0--------------0-------------------0~-----------------------|
A|--------7--------------5-------------------2~-----------------------|
E|--------7--------------5-------------------2~-----------------------|

And done! Here are lyrics:

This feeling doesn't go away
I feel it moving through me
I want a love I had inside
Want to feel it moving through me

In dreams
I'm moving through heavy water
the love is enormous
it's lifting me up
I'd rather be sleeping
I'd rather fall in to tidal waves
and go where the deepest currents go

I opened a mirror up
and saw a true love
I let it separate in two
the water rising up over my head

In dreams
I'm moving through heavy water
the love is enormous
it's lifting me up
I'd rather be sleeping
I'd rather fall in to tidal waves
and go where the deepest currents go
00:00 / 00:00
Otros videos de esta canción
Repetir
Otros videos de esta canción
27 exhibiciones
    • ½ Tono
    • A
    • Bb
    • B
    • C
    • Db
    • D
    • Eb
    • E
    • F
    • F#
    • G
    • Ab
  • Agregar a la lista

Afinación de cifrado

Afinador online

    00:00 / 00:00
    OK