Cifra Club

Holding

Grouper

Cifrado: Principal (guitarra y guitarra eléctrica)
Selo Cifra Club: esta cifra foi revisada para atender aos critérios oficiais da nossa Equipe de Qualidade.
tono: F#
E|---------------------|----------|
B|---------------------|----------|
G|---------------------|----------|
D|---------------------|----------|
A|---------9-------6---|----------|
E|---7--7--------------|---7--7---|

E|--------------------------|-----------------------|
B|--------------------------|-----------------------|
G|------------------8-------|---------------8-------|
D|------------9--8-----11---|---------9--8-----11---|
A|---------9----------------|------9----------------|
E|---7--7-------------------|---7-------------------|

E|---------------------------------------------------------------|
B|---------------------------------------------------------------|
G|---------------8--------------------------8--------------------|
D|---------9--8------11--9--8---------9--8-----11---------8--9---|
A|------9-----------------------6--9-------------------9---------|
E|---7----------------------------------------------9------------|

E|-----------------------|
B|-----------------------|
G|---------------8-------|
D|---------9--8-----11---|
A|------9----------------|
E|---7-------------------|

E|---------------------|----------|
B|---------------------|----------|
G|---------------------|----------|
D|---------------------|----------|
A|---------9-------6---|----------|
E|---7--7--------------|---7--7---|
00:00 / 00:00
Otros videos de esta canción
Repetir
Otros videos de esta canción
4 exhibiciones
    • ½ Tono
    • A
    • Bb
    • B
    • C
    • Db
    • D
    • Eb
    • E
    • F
    • F#
    • G
    • Ab
  • Agregar a la lista

Afinación de cifrado

Afinador online

    00:00 / 00:00
    OK