Cifra Club

Invisible

Grouper

Cifrado: Principal (guitarra y guitarra eléctrica)
Selo Cifra Club: esta cifra foi revisada para atender aos critérios oficiais da nossa Equipe de Qualidade.
tono: F#m
E|-----------------------------------------------------|
B|--------------------------0---0---0------------------|
G|-------------0-------0-----------------0-------------|
D|-0-------0-------0-----------------------------------|
A|-----0-----------------------------------------------|
E|-----------------------------------------------------|

E|-----------------------------------------------------|
B|-0-------0-------------------------------------------|
G|-----0-------0-----------0---------------------------|
D|-----------------0---0-------0---0-------------------|
A|-------------------------2---2---2---0---------------|
E|-------------------------------------0---------------|

Progression 1:

    D      C#    D/A   Dmaj7/A
E|--------------------------------|
B|-5------4------0------4---------|
G|--------------------------------|
D|-4------4------0------4---------|
A|-5------4------0------0---------|
E|--------------------------------|

Progression 2:

   Dsus4   C#     B    Dmaj7/A
E|--------------------------------|
B|-0------4------0------4---------|
G|-5------------------------------|
D|-0------4------0------4---------|
A|-0------4------2------0---------|
 D|--------------------------------|
00:00 / 00:00
Otros videos de esta canción
Repetir
Otros videos de esta canción
1 exhibiciones
    • ½ Tono
    • Am
    • Bbm
    • Bm
    • Cm
    • C#m
    • Dm
    • Ebm
    • Em
    • Fm
    • F#m
    • Gm
    • G#m
  • Agregar a la lista

Afinación de cifrado

Afinador online

    00:00 / 00:00
    OK