Cifra Club

Kelso Blue Sky

Grouper

Cifrado: Principal (guitarra y guitarra eléctrica)
Selo Cifra Club: esta cifra foi revisada para atender aos critérios oficiais da nossa Equipe de Qualidade.
tono: D
E|------------------------------------------------------------|
B|------------------------------------------------------------|
G|-----------0-----------0------------0------------0----------|
D|--------7-----------7------------7------------7-------------|
A|-----0-----------0------------0------------0----------------|
E|--7-----------7------------7------------7-------------------|

E|------------------------------------------------------------|
B|------------------------------------------------------------|
G|-----------0-----------0------------0------------0----------|
D|--------5-----------5------------5------------5-------------|
A|-----0-----------0------------0------------0----------------|
E|--5-----------5------------5------------5-------------------|

E|------------------------------------------------------------|
B|------------------------------------------------------------|
G|-----------0-----------0------------0------------0----------|
D|--------7-----------7------------7------------7-------------|
A|-----0-----------0------------0------------0----------------|
E|--7-----------7------------7------------7-------------------|

E|------------------------------------------------------------|
B|------------------------------------------------------------|
G|-----------0-----------0------------0------------0----------|
D|--------5-----------5------------5------------5-------------|
A|-----0-----------0------------0------------0----------------|
E|--5-----------5------------5------------5-------------------|


[Verse 1]

     Blue sky over Kelso and I'm feeling
E|------------------------------------------------------------|
B|------------------------------------------------------------|
G|-----------0-----------0------------0------------0----------|
D|--------7-----------7------------7------------7-------------|
A|-----0-----------0------------0------------0----------------|
E|--7-----------7------------7------------7-------------------|

     fine
E|------------------------------------------------------------|
B|------------------------------------------------------------|
G|-----------0-----------0------------0------------0----------|
D|--------0-----------0------------0------------0-------------|
A|-----0-----------0------------0------------0----------------|
E|--0-----------0------------0------------0-------------------|

    Just crossed the bridge from Longview
E|------------------------------------------------------------|
B|------------------------------------------------------------|
G|-----------0-----------0------------0------------0----------|
D|--------7-----------7------------7------------7-------------|
A|-----0-----------0------------0------------0----------------|
E|--7-----------7------------7------------7-------------------|

E|------------------------------------------------------------|
B|------------------------------------------------------------|
G|------------------------------------------------------------|
D|--------12------------11-----------9-----------7------------|
A|-----12----12------12----12-----9----9-------7---7----------|
E|--12------------11-----------9------------7-----------------|

E|------------0----------------0------------------------------|
B|----------0---0------------0---0----------------------------|
G|--------0-------0--------0-------0--------------------------|
D|------0----------------0------------------------------------|
A|----0----------------0--------------------------------------|
E|--5----------------5----------------------------------------|

                                     I'm leading the line
E|------------------------------------------------------------|
B|------------------------------------------------------------|
G|-----------0-----------0------------0------------0----------|
D|--------0-----------0------------0------------0-------------|
A|-----0-----------0------------0------------0----------------|
E|--5-----------5------------5------------5-------------------|


E|------------------------------------------------------------|
B|------------------------------------------------------------|
G|-----------0-----------0------------0------------0----------|
D|--------0-----------0------------0------------0-------------|
A|-----0-----------0------------0------------0----------------|
E|--0-----------0------------0------------0-------------------|

E|------------0-----------------------------------------------|
B|----------0---0---------------------------------------------|
G|--------0-------0~~~~~--------------------------------------|
D|------0-----------------------------------------------------|
A|----0-------------------------------------------------------|
E|--0---------------------------------------------------------|


                                             Alone
E|------------------------------------------------------------|
B|------------------------------------------------------------|
G|-----------0-----------0------------0------------0----------|
D|--------7-----------7------------7------------7-------------|
A|-----0-----------0------------0------------0----------------|
E|--7-----------7------------7------------7-------------------|

     on the road at
E|------------------------------------------------------------|
B|------------------------------------------------------------|
G|-----------0-----------0------------0------------0----------|
D|--------5-----------5------------5------------5-------------|
A|-----0-----------0------------0------------0----------------|
E|--5-----------5------------5------------5-------------------|


     night
E|------------------------------------------------------------|
B|------------------------------------------------------------|
G|-----------0-----------0------------0------------0----------|
D|--------7-----------7------------7------------7-------------|
A|-----0-----------0------------0------------0----------------|
E|--7-----------7------------7------------7-------------------|

     Columns of white fog
E|------------------------------------------------------------|
B|------------------------------------------------------------|
G|-----------0-----------0------------0------------0----------|
D|--------5-----------5------------5------------5-------------|
A|-----0-----------0------------0------------0----------------|
E|--5-----------5------------5------------5-------------------|


    rising up to
E|------------------------------------------------------------|
B|------------------------------------------------------------|
G|-----------0-----------0------------0------------0----------|
D|--------7-----------7------------7------------7-------------|
A|-----0-----------0------------0------------0----------------|
E|--7-----------7------------7------------7-------------------|

     consume me
E|------------------------------------------------------------|
B|------------------------------------------------------------|
G|-----------0-----------0------------0------------0----------|
D|--------0-----------0------------0------------0-------------|
A|-----0-----------0------------0------------0----------------|
E|--0-----------0------------0------------0-------------------|

E|------------0-----------------------------------------------|
B|----------0---0---------------------------------------------|
G|--------0-------0~~~~~--------------------------------------|
D|------0-----------------------------------------------------|
A|----0-------------------------------------------------------|
E|--0---------------------------------------------------------|

                          Guess I'm halfway
E|------------------------------------------------------------|
B|------------------------------------------------------------|
G|-----------0-----------0------------0------------0----------|
D|--------7-----------7------------7------------7-------------|
A|-----0-----------0------------0------------0----------------|
E|--7-----------7------------7------------7-------------------|

     home
E|------------------------------------------------------------|
B|------------------------------------------------------------|
G|-----------0-----------0------------0------------0----------|
D|--------0-----------0------------0------------0-------------|
A|-----0-----------0------------0------------0----------------|
E|--0-----------0------------0------------0-------------------|

                           Can't wait to be here
E|------------------------------------------------------------|
B|------------------------------------------------------------|
G|-----------0-----------0------------0------------0----------|
D|--------7-----------7------------7------------7-------------|
A|-----0-----------0------------0------------0----------------|
E|--7-----------7------------7------------7-------------------|


E|------------------------------------------------------------|
B|------------------------------------------------------------|
G|-----------0-----------0------------0------------0----------|
D|--------0-----------0------------0------------0-------------|
A|-----0-----------0------------0------------0----------------|
E|--0-----------0------------0------------0-------------------|


                               Can't wait to be
E|------------------------------------------------------------|
B|------------------------------------------------------------|
G|-----------0-----------0------------0------------0----------|
D|--------7-----------7------------7------------7-------------|
A|-----0-----------0------------0------------0----------------|
E|--7-----------7------------7------------7-------------------|

   alone
E|------------------------------------------------------------|
B|------------------------------------------------------------|
G|------------------------------------------------------------|
D|--------12------------11-----------9-----------7------------|
A|-----12----12------12----12-----9----9-------7---7----------|
E|--12------------11-----------9------------7-----------------|

E|------------0----------------0------------------------------|
B|----------0---0------------0---0----------------------------|
G|--------0-------0--------0-------0--------------------------|
D|------0----------------0------------------------------------|
A|----0----------------0--------------------------------------|
E|--5----------------5----------------------------------------|

                  I'm nearly to the
E|------------------------------------------------------------|
B|------------------------------------------------------------|
G|-----------0-----------0------------0------------0----------|
D|--------0-----------0------------0------------0-------------|
A|-----0-----------0------------0------------0----------------|
E|--5-----------5------------5------------5-------------------|

   coast
E|------------------------------------------------------------|
B|------------------------------------------------------------|
G|-----------0-----------0------------0------------0----------|
D|--------0-----------0------------0------------0-------------|
A|-----0-----------0------------0------------0----------------|
E|--0-----------0------------0------------0-------------------|

E|------------0-----------------------------------------------|
B|----------0---0---------------------------------------------|
G|--------0-------0~~~~~--------------------------------------|
D|------0-----------------------------------------------------|
A|----0-------------------------------------------------------|
E|--0---------------------------------------------------------|



[Verse 2]

                                            In morning
E|------------------------------------------------------------|
B|------------------------------------------------------------|
G|-----------0-----------0------------0------------0----------|
D|--------7-----------7------------7------------7-------------|
A|-----0-----------0------------0------------0----------------|
E|--7-----------7------------7------------7-------------------|

     I wake up
E|------------------------------------------------------------|
B|------------------------------------------------------------|
G|-----------0-----------0------------0-----------0-----------|
D|--------5-----------5------------5------------5-------------|
A|-----0-----------0------------0------------0----------------|
E|--5-----------5------------5------------5-------------------|

    Crying again
E|------------------------------------------------------------|
B|------------------------------------------------------------|
G|-----------0-----------0------------0------------0----------|
D|--------7-----------7------------7------------7-------------|
A|-----0-----------0------------0------------0----------------|
E|--7-----------7------------7------------7-------------------|


                                     Tell you that I'm fine
E|------------------------------------------------------------|
B|------------------------------------------------------------|
G|-----------0-----------0------------0------------0----------|
D|--------5-----------5------------5------------5-------------|
A|-----0-----------0------------0------------0----------------|
E|--5-----------5------------5------------5-------------------|


E|------------------------------------------------------------|
B|------------------------------------------------------------|
G|-----------0-----------0------------0------------0----------|
D|--------0-----------0------------0------------0-------------|
A|-----0-----------0------------0------------0----------------|
E|--0-----------0------------0------------0-------------------|

E|------------0-----------------------------------------------|
B|----------0---0---------------------------------------------|
G|--------0-------0~~~~~--------------------------------------|
D|------0-----------------------------------------------------|
A|----0-------------------------------------------------------|
E|--0---------------------------------------------------------|


                                  Lights turn on and off
E|------------------------------------------------------------|
B|------------------------------------------------------------|
G|-----------0-----------0------------0------------0----------|
D|--------7-----------7------------7------------7-------------|
A|-----0-----------0------------0------------0----------------|
E|--7-----------7------------7------------7-----------0~~~~~~~|


       Playing across the ceiling
E|------------------------------------------------------------|
B|------------------------------------------------------------|
G|-----------0-----------0------------0------------0----------|
D|--------7-----------7------------7------------7-------------|
A|-----0-----------0------------0------------0----------------|
E|--7-----------7------------7------------7-------------------|


E|------------0-----------------------------------------------|
B|----------0---0---------------------------------------------|
G|--------0-------0-------------------------------------------|
D|------0-----------------------------------------------------|
A|----0---------------------0----0----------------------------|
E|--0---------------------0----0------------------------------|


            Feet falling when I
E|------------------------------------------------------------|
B|------------------------------------------------------------|
G|-----------0-----------0------------0------------0----------|
D|--------7-----------7------------7------------7-------------|
A|-----0-----------0------------0------------0----------------|
E|--7-----------7------------7------------7-------------------|


   close my eyes
E|------------------------------------------------------------|
B|------------------------------------------------------------|
G|------------------------------------------------------------|
D|--------12------------11-----------9-----------7------------|
A|-----12----12------12----12-----9----9-------7---7----------|
E|--12------------11-----------9------------7-----------------|


E|------------0----------------0------------------------------|
B|----------0---0------------0---0----------------------------|
G|--------0-------0--------0-------0--------------------------|
D|------0----------------0------------------------------------|
A|----0----------------0--------------------------------------|
E|--5----------------5----------------------------------------|

                              Watch you jump the
E|------------------------------------------------------------|
B|------------------------------------------------------------|
G|-----------0-----------0------------0------------0----------|
D|--------0-----------0------------0------------0-------------|
A|-----0-----------0------------0------------0----------------|
E|--5-----------5------------5------------5-------------------|

    line
E|------------------------------------------------------------|
B|------------------------------------------------------------|
G|-----------0-----------0------------0------------0----------|
D|--------0-----------0------------0------------0-------------|
A|-----0-----------0------------0------------0----------------|
E|--0-----------0------------0------------0-------------------|

E|------------0-----------------------------------------------|
B|----------0---0---------------------------------------------|
G|--------0-------0~~~~~--------------------------------------|
D|------0-----------------------------------------------------|
A|----0-------------------------------------------------------|
E|--0---------------0-----------------------------------------|



[Intro Repeat]

E|------------------------------------------------------------|
B|------------------------------------------------------------|
G|-----------0-----------0------------0------------0----------|
D|--------7-----------7------------7------------7-------------|
A|-----0-----------0------------0------------0----------------|
E|--7-----------7------------7------------7-------------------|

E|------------------------------------------------------------|
B|------------------------------------------------------------|
G|-----------0-----------0------------0------------0----------|
D|--------5-----------5------------5------------5-------------|
A|-----0-----------0------------0------------0----------------|
E|--5-----------5------------5------------5-------------------|

E|------------------------------------------------------------|
B|------------------------------------------------------------|
G|-----------0-----------0------------0------------0----------|
D|--------7-----------7------------7------------7-------------|
A|-----0-----------0------------0------------0----------------|
E|--7-----------7------------7------------7-------------------|

E|------------------------------------------------------------|
B|------------------------------------------------------------|
G|-----------0-----------0------------0------------0----------|
D|--------5-----------5------------5------------5-------------|
A|-----0-----------0------------0------------0----------------|
E|--5-----------5------------5------------5-------------------|


[Verse 3]


     Blue sky on the edges of my
E|------------------------------------------------------------|
B|------------------------------------------------------------|
G|-----------0-----------0------------0------------0----------|
D|--------7-----------7------------7------------7-------------|
A|-----0-----------0------------0------------0----------------|
E|--7-----------7------------7------------7-------------------|

     mind
E|------------------------------------------------------------|
B|------------------------------------------------------------|
G|-----------0-----------0------------0------------0----------|
D|--------0-----------0------------0------------0-------------|
A|-----0-----------0------------0------------0----------------|
E|--0-----------0------------0------------0-------------------|


     How'd I fail to see you?
E|------------------------------------------------------------|
B|------------------------------------------------------------|
G|-----------0-----------0------------0------------0----------|
D|--------7-----------7------------7------------7-------------|
A|-----0-----------0------------0------------0----------------|
E|--7-----------7------------7------------7-------------------|


E|------------------------------------------------------------|
B|------------------------------------------------------------|
G|-----------0-----------0------------0------------0----------|
D|--------0-----------0------------0------------0-------------|
A|-----0-----------0------------0------------0----------------|
E|--0-----------0------------0------------0-------------------|


     Can't believe that I don't
E|------------------------------------------------------------|
B|------------------------------------------------------------|
G|-----------0-----------0------------0------------0----------|
D|--------7-----------7------------7------------7-------------|
A|-----0-----------0------------0------------0----------------|
E|--7-----------7------------7------------7-------------------|


   get to see you
E|------------------------------------------------------------|
B|------------------------------------------------------------|
G|------------------------------------------------------------|
D|--------12------------11-----------9-----------7------------|
A|-----12----12------12----12-----9----9-------7---7----------|
E|--12------------11-----------9------------7-----------------|


E|------------0----------------0------------------------------|
B|----------0---0------------0---0----------------------------|
G|--------0-------0--------0-------0--------------------------|
D|------0----------------0------------------------------------|
A|----0----------------0--------------------------------------|
E|--5----------------5----------------------------------------|

                                        One more time
E|------------------------------------------------------------|
B|------------------------------------------------------------|
G|-----------0-----------0------------0------------0----------|
D|--------0-----------0------------0------------0-------------|
A|-----0-----------0------------0------------0----------------|
E|--5-----------5------------5------------5-------------------|


E|------------------------------------------------------------|
B|------------------------------------------------------------|
G|-----------0-----------0------------0------------0----------|
D|--------0-----------0------------0------------0-------------|
A|-----0-----------0------------0------------0----------------|
E|--0-----------0------------0------------0-------------------|

E|------------0-----------------------------------------------|
B|----------0---0---------------------------------------------|
G|--------0-------0~~~~~--------------------------------------|
D|------0-----------------------------------------------------|
A|----0-------------------------------------------------------|
E|--0---------------0-----------------------------------------|

E|------------------------------------------------------------|
B|------------------------------------------------------------|
G|-----------0-----------0------------0------------0----------|
D|--------7-----------7------------7------------7-------------|
A|-----0-----------0------------0------------0----------------|
E|--7-----------7------------7------------7-------------------|

     I asked how you
E|------------------------------------------------------------|
B|------------------------------------------------------------|
G|-----------0-----------0------------0------------0----------|
D|--------5-----------5------------5------------5-------------|
A|-----0-----------0------------0------------0----------------|
E|--5-----------5------------5------------5-------------------|

   were doing
E|------------------------------------------------------------|
B|------------------------------------------------------------|
G|-----------0-----------0------------0------------0----------|
D|--------7-----------7------------7------------7-------------|
A|-----0-----------0------------0------------0----------------|
E|--7-----------7------------7------------7-------------------|

                         And you said fine
E|------------0-----------------------------------------------|
B|----------0---0---------------------------------------------|
G|--------0-------0----------0----------0---------------------|
D|------0-----------------5----------5------------------------|
A|----0-------------------------------------------------------|
D |--5----------------5----------5----------0~~~~~~------------|
Otros videos de esta canción
    3 exhibiciones
      • ½ Tono
      • A
      • Bb
      • B
      • C
      • Db
      • D
      • Eb
      • E
      • F
      • F#
      • G
      • Ab
    • Agregar a la lista

    Afinação da cifra

    Afinador online

      Ops (: Contenido disponible solo en portugués.
      OK