Cifra Club

Ode To The Blue

Grouper

Cifrado: Principal (guitarra y guitarra eléctrica)
Selo Cifra Club: esta cifra foi revisada para atender aos critérios oficiais da nossa Equipe de Qualidade.
tono: Eb
0:00 - 1:08
E|---------------------------------------------------------------|
B|---------------------------------------------------------------|
G|-------0-------0--------0--------0--------0--------0-----------|
D|----3-------3--------3--------3--------3--------3--------------|
A|-6-------6--------3--------3--------6--------6-----------------|
E|---------------------------------------------------------------|

E|---------------------------------------------------------------|
B|---------------------------------------------------------------|
G|-------0--------0-------0--------0--------0--------0-----------|
D|----3--------3--------3-------3--------3--------3--------------|
A|-5--------5--------6-------6--------3--------3-----------------|
E|---------------------------------------------------------------|

E|---------------------------------------------------------------|
B|---------------------------------------------------------------|
G|-------0--------0-------0--------0--------0--------0-----------|
D|----3--------3--------3-------3--------3--------3--------------|
A|-6--------6--------5-------5--------5--------5-----------------|
E|---------------------------------------------------------------| rpt. whole section (3 bars) twice


1:09 - 1:28
E|---------------------------------------------------------------|
B|---------------------------------------------------------------|
G|-------0-------0--------0--------0--------0--------0-----------|
D|----3-------3--------3--------3--------3--------3--------------|
A|-5-------6--------3--------3--------5--------6-----------------|
E|---------------------------------------------------------------|

E|------------------------------------|
B|------------------------------------|
G|-------0-------0--------0--------0--|
D|----3-------3--------3--------3-----|
A|-5-------5--------5--------5--------|
E|------------------------------------|


1:29 - end
E|---------------------------------------------------------------|
B|---------------------------------------------------------------|
G|-------0-------0--------0--------0--------0--------0-----------|
D|----3-------3--------3--------3--------3--------3--------------|
A|-6-------6--------3--------3--------6--------6-----------------|
E|---------------------------------------------------------------|

E|---------------------------------------------------------------|
B|---------------------------------------------------------------|
G|-------0--------0-------0--------0--------0--------0-----------|
D|----3--------3--------3-------3--------3--------3--------------|
A|-5--------5--------5-------5--------6--------6-----------------|
E|---------------------------------------------------------------|

E|---------------------------------------------------------------|
B|---------------------------------------------------------------|
G|-------0--------0-------0--------0--------0--------0-----------|
D|----3--------3--------3-------3--------3--------3--------------|
A|-3--------3--------6-------6--------5--------5-----------------|
E|---------------------------------------------------------------|

E|---------------------------------------------------------------|
B|---------------------------------------------------------------|
G|-------0-------0--------0--------0--------0--------0-----------|
D|----3-------3--------3--------3--------3--------3--------------|
A|-6-------6--------3--------3--------6--------6-----------------|
E|---------------------------------------------------------------|

E|---------------------------------------------------------------|
B|---------------------------------------------------------------|
G|-------0--------0-------0--------0--------0--------0-----------|
D|----3--------3--------3-------3--------3--------3--------------|
A|-5--------5--------5-------5--------6--------6-----------------|
E|---------------------------------------------------------------|

E|---------------------------------------------------------------|
B|---------------------------------------------------------------|
G|-------0-------0--------0--------0--------0--------0-----------|
D|----3-------3--------3--------3--------3--------3--------------|
A|-3-------3--------6--------6--------5--------5-----------------|
E|---------------------------------------------------------------|

E|---------------------------------------------------------------|
B|---------------------------------------------------------------|
G|-------0-------0--------0--------0--------0--------0--------0--|
D|----3-------3--------3--------3--------3--------3--------3-----|
A|-6-------6--------3--------3--------6--------6--------5--------|
E|---------------------------------------------------------------|
Otros videos de esta canción
    5 exhibiciones
      • ½ Tono
      • A
      • Bb
      • B
      • C
      • Db
      • D
      • Eb
      • E
      • F
      • F#
      • G
      • Ab
    • Agregar a la lista

    Afinação da cifra

    Afinador online

      Ops (: Contenido disponible solo en portugués.
      OK