Cifra Club

Pale Interior

Grouper

Cifrado: Principal (guitarra y guitarra eléctrica)
Selo Cifra Club: esta cifra foi revisada para atender aos critérios oficiais da nossa Equipe de Qualidade.
tono: G
[0:00 - 0:45]
E|-------------------------------------------------------------------------|
B|-------------------------------------------------------------------------|
G|---------0---------0---------0---------0-------0-------0-------0-------0-|
D|-------0---------0---------0---------0-------0-------0-------0-------0---|
A|----10--------10--------10--------10-------7-------7-------7-------7-----|
E|-10--------10--------10--------10--------7-------7-------7-------7-------|

E|-------------------------------------------------------------------------|
B|-------------------------------------------------------------------------|
G|---------0---------0---------0---------0-------0-------0-------0-------0-|
D|-------0---------0---------0---------0-------0-------0-------0-------0---|
A|----5---------5---------5---------5--------3-------3-------3-------3-----|
E|-5---------5---------5---------5---------3-------3-------3-------3-------|

E|-------------------------------------------------------------------------|
B|-------------------------------------------------------------------------|
G|---------0---------0---------0---------0-------0-------0-------0-------0-|
D|-------0---------0---------0---------0-------0-------0-------0-------0---|
A|----10--------10--------10--------10-------7-------7-------7-------7-----|
E|-10--------10--------10--------10--------7-------7-------7-------7-------|

E|-------------------------------------------------------------------------|
B|-------------------------------------------------------------------------|
G|---------0---------0---------0---------0-------0-------0-------0-------0-|
D|-------0---------0---------0---------0-------0-------0-------0-------0---|
A|----5---------5---------5---------5--------3-------3-------3-------3-----|
E|-5---------5---------5---------5---------3-------3-------3-------3-------|

[0:46 - 1:03]
E|-------------------------------------------------------------------|
B|-------------------------------------------------------------------|
G|----------0---------0---------0---------0-------0-------0-------0--|
D|--------0---------0---------0---------0-------0-------0-------0----|
A|------5---------7---------2---------3--------3-------3-------3-----|
E|-3-5---------7---------2---------3---------3-------3-------3-------|

E|----------------------------------------------------------------|
B|----------------------------------------------------------------|
G|--------0---------0---------0---------0-------0-------0-------0-|
D|------0---------0---------0---------0-------0-------0-------0---|
A|---5---------7---------2---------3--------3-------3-------3-----|
E|-5---------7---------2---------3-------3-------3-------3--------|

[1:04 - 1:38]
E|---------------------------------------------------------------|
B|---------------------------------------------------------------|
G|-------0-------0---------0---------0---------0---------0-------|
D|-----0-------0---------0---------0---------0---------0---------|
A|---5-------7--------10--------10--------10--------10-----------|
E|-5-------7-------10--------10--------10--------10--------------|

E|---------------------------------------------------------------------------|
B|---------------------------------------------------------------------------|
G|---------0---------0---------0---------0-------0--------0-------0--------0-|
D|-------0---------0---------0---------0-------0--------0-------0--------0---|
A|----10--------10--------10--------10-------10------10------10-------10-----|
E|-10--------10--------10--------10--------10------10------10-------10-------|

E|-------------------------------------------------------------------------|
B|-------------------------------------------------------------------------|
G|---------0---------0---------0---------0-------0-------0-------0-------0-|
D|-------0---------0---------0---------0-------0-------0-------0-------0---|
A|----7---------7---------7---------7--------5-------5-------5-------5-----|
E|-7---------7---------7---------7---------5-------5-------5-------5-------|

E|-----------------------------------------|
B|-----------------------------------------|
G|---------0---------0---------0---------0-|
D|-------0---------0---------0---------0---|
A|----3---------3---------3---------3------|
E|-3---------3---------3---------3---------|

[1:39 - 1:58]
E|-------------------------------------------------------------------------|
B|-------------------------------------------------------------------------|
G|---------0---------0---------0---------0-------0-------0-------0-------0-|
D|-------0---------0---------0---------0-------0-------0-------0-------0---|
A|----10--------10--------10--------10-------7-------7-------7-------7-----|
E|-10--------10--------10--------10--------7-------7-------7-------7-------|

E|-------------------------------------------------------------------------|
B|-------------------------------------------------------------------------|
G|---------0---------0---------0---------0-------0-------0-------0-------0-|
D|-------0---------0---------0---------0-------0-------0-------0-------0---|
A|----5---------5---------5---------5--------3-------3-------3-------3-----|
E|-5---------5---------5---------5---------3-------3-------3-------3-------|

[1:59 - 2:32]
E|-------------------------------------------------------------------|
B|-------------------------------------------------------------------|
G|----------0---------0---------0---------0-------0-------0-------0--|
D|--------0---------0---------0---------0-------0-------0-------0----|
A|------5---------7---------2---------3--------3-------3-------3-----|
E|-3-5---------7---------2---------3---------3-------3-------3-------|

E|----------------------------------------------------------------|
B|----------------------------------------------------------------|
G|--------0---------0---------0---------0-------0-------0-------0-|
D|------0---------0---------0---------0-------0-------0-------0---|
A|---5---------7---------2---------3--------3-------3-------3-----|
E|-5---------7---------2---------3-------3-------3-------3--------|

E|--------------------------------------------------------|
B|--------------------------------------------------------|
G|--------0---------0---------0---------0-------0-------0-|
D|------0---------0---------0---------0-------0-------0---|
A|---5---------7---------3---------3--------3-------3-----|
E|-5---------7---------3---------3-------3-------3--------|

E|--------------------------------------------------------|
B|--------------------------------------------------------|
G|--------0---------0---------0---------0-------0-------0-|
D|------0---------0---------0---------0-------0-------0---|
A|---5---------7---------3---------3--------3-------3-----|
E|-5---------7---------3---------3-------3-------3--------|

[2:33 - 3:00]
E|--------------------------------------------------------|
B|--------------------------------------------------------|
G|--------0---------0---------0---------0-------0-------0-|
D|------0---------0---------0---------0-------0-------0---|
A|---5---------7---------3---------3--------3-------3-----|
E|-5---------7---------3---------3-------3-------3--------|

E|--------------------------------------------------------|
B|--------------------------------------------------------|
G|--------0---------0---------0---------0-------0-------0-|
D|------0---------0---------0---------0-------0-------0---|
A|---5---------7---------3---------3--------3-------3-----|
E|-5---------7---------3---------3-------3-------3--------|

E|---------------------------------------------------------------|
B|---------------------------------------------------------------|
G|-------0-------0---------0---------0---------0---------0-------|
D|-----0-------0---------0---------0---------0---------0---------|
A|---5-------7--------10--------10--------10--------10-----------|
E|-5-------7-------10--------10--------10--------10--------------|

E|----------------------------|
B|----------------------------|
G|---------0---------0--------|
D|-------0---------0----------|
A|----10--------10------------|
E|-10--------10--------10-----|

[3:02 - end]
E|-------------------------------------------------------------------------|
B|-------------------------------------------------------------------------|
G|---------0---------0---------0---------0-------0-------0-------0-------0-|
D|-------0---------0---------0---------0-------0-------0-------0-------0---|
A|----10--------10--------10--------10-------7-------7-------7-------7-----|
E|-10--------10--------10--------10--------7-------7-------7-------7-------|

E|-------------------------------------------------------------------------|
B|-------------------------------------------------------------------------|
G|---------0---------0---------0---------0-------0-------0-------0-------0-|
D|-------0---------0---------0---------0-------0-------0-------0-------0---|
A|----5---------5---------5---------5--------3-------3-------3-------3-----|
E|-5---------5---------5---------5---------3-------3-------3-------3-------|

E|-------------------------------------------------------------------------|
B|-------------------------------------------------------------------------|
G|---------0---------0---------0---------0-------0-------0-------0-------0-|
D|-------0---------0---------0---------0-------0-------0-------0-------0---|
A|----10--------10--------10--------10-------7-------7-------7-------7-----|
E|-10--------10--------10--------10--------7-------7-------7-------7-------|

E|--------------------------------------------------------------|
B|--------------------------------------------------------------|
G|---------0---------0---------0---------0-------0-------0------|
D|-------0---------0---------0---------0-------0-------0--------|
A|----5---------5---------5---------5--------3-------3----------|
D|-5---------5---------5---------5---------3-------3-------3----|
Otros videos de esta canción
    4 exhibiciones
      • ½ Tono
      • A
      • Bb
      • B
      • C
      • Db
      • D
      • Eb
      • E
      • F
      • F#
      • G
      • Ab
    • Agregar a la lista

    Afinação da cifra

    Afinador online

      Ops (: Contenido disponible solo en portugués.
      OK