Cifra Club

Vapor Trails

Grouper

Cifrado: Principal (guitarra y guitarra eléctrica)
Selo Cifra Club: esta cifra foi revisada para atender aos critérios oficiais da nossa Equipe de Qualidade.
tono: D
E|---------------------------------------------|
B|-----5--7--7-----5--5--3--3-----2--2--2--0---|
G|--7------------------------------------------|
D|---------------------------------------------|
A|--------5--------0-----2---------------------|
E|--------------------------------2-----3------|

E|---------------------------------------------|
B|-----5--7--7-----5--5--3--3-----2--2--2--0---|
G|--7------------------------------------------|
D|---------------------------------------------|
A|--------5--------0-----2---------------------|
E|--------------------------------2-----3--3---|

E|----------------|----------------|-------|----------------|----------------|
B|--5--5--3--3----|--2--2--0--0----|-------|-----5--7--8----|--7--5--5--3----|
G|----------------|----------------|-------|--7-------------|----------------|
D|----------------|----------------|-------|----------------|----------------|
A|--0-----2-------|----------------|-------|--------5-------|-----0-----2----|
E|----------------|--2-----3--3----|-------|----------------|----------------|

E|----------------|----------|----------------|----------------|----------------|
B|--3--2--2--2----|--0-------|-----5--7--8----|--7--5--5--3----|--3--2--2--0----|
G|----------------|----------|--7-------------|----------------|----------------|
D|----------------|----------|----------------|----------------|----------------|
A|----------------|----------|--------5-------|-----0-----2----|----------------|
E|-----2-----3----|----------|----------------|----------------|-----2-----3----|

E|----------|----------------|----------------|----------------|----------------|
B|--0-------|--0--2--3--3----|--2--2--2--0----|--3--2----------|--------2--3----|
G|----------|----------------|----------------|--------2--4----|--2--4----------|
D|----------|----------------|----------------|----------------|----------------|
A|----------|-----------0----|-----0-----2----|----------------|--------0-------|
E|--3-------|----------------|----------------|-----2-----3----|----------------|

E|-------------|----------------|----------------|----------------|
B|--2--3-------|--2--2-----3----|--2-------------|--------2--3----|
G|-------------|--------4-------|-----2--4-------|--2--4----------|
D|-------------|----------------|----------------|----------------|
A|-------------|--------2-------|----------------|--------0-------|
E|-------------|----------------|--2-----3-------|----------------|
00:00 / 00:00
Otros videos de esta canción
Repetir
Otros videos de esta canción
7 exhibiciones
    • ½ Tono
    • A
    • Bb
    • B
    • C
    • Db
    • D
    • Eb
    • E
    • F
    • F#
    • G
    • Ab
  • Agregar a la lista

Afinación de cifrado

Afinador online

    00:00 / 00:00
    OK