Cifra Club

Water People

Grouper

Cifrado: Principal (guitarra y guitarra eléctrica)
Selo Cifra Club: esta cifra foi revisada para atender aos critérios oficiais da nossa Equipe de Qualidade.
tono: D
[Intro]
E|-------------------|-------------------|-------------------|-------------------|
B|-------------------|-------------------|-------------------|-------------------|
G|-------------------|-------------------|--------0-------0--|--------0-------0--|
D|--------0-------0--|--------0-------0--|------0-------0----|------0-------0----|
A|------9-------9----|------7-------7----|----0-------0------|----0-------0------|
E|--9-9-----9-9------|--7-7-----7-7------|--0-------0--------|--0-------0--------|

E|-------------------|-------------------|-------------------|-------------------|
B|-------------------|-------------------|-------------------|-------------------|
G|--------0-------0--|--------0-------0--|--------0-------0--|--------0-------0--|
D|------0-------0----|------0-------0----|------0-------0----|------0-------0----| (x3)
A|----9-------9------|----7-------7------|----0-------0------|----0-------0------|
E|--9-------9--------|--7-------7--------|--0-------0--------|--0-------0--------|

[Verse 1]
E|-------------------|-------------------|-------------------|-------------------|
B|-------------------|-------------------|-------------------|-------------------|
G|--------0-------0--|--------0-------0--|--------0-------0--|--------0-------0--|
D|------0-------0----|------0-------0----|------0-------0----|------0-------0----|
A|----0-------0------|----7-------7------|----5-------5------|----0-------0------|
E|--0-------0--------|--7-------7--------|--5-------5--------|--0-------0--------|
        The stars are captured as they    fall,       to         the sea
E|-------------------|-------------------|-------------------|-------------------|
B|-------------------|-------------------|-------------------|-------------------|
G|--------0-------0--|--------0-------0--|--------0-------0--|--------0-------0--|
D|------0-------0----|------0-------0----|------0-------0----|------0-------0----|
A|----0-------0------|----7-------7------|----5-------5------|----0-------0------|
E|--0-------0--------|--7-------7--------|--5-------5--------|--0-------0--------|
       The light the   water    is    receiving
E|-------------------|-------------------|-------------------|-------------------|
B|-------------------|-------------------|-------------------|-------------------|
G|--------0-------0--|--------0-------0--|--------0-------0--|--------0-------0--|
D|------0-------0----|------0-------0----|------0-------0----|------0-------0----|
A|----9-------9------|----7-------7------|----5-------5------|----2-------2------|
E|--9-------9--------|--7-------7--------|--5-------5--------|--2-------2--------|
           I haven't caught their kind of light,           in me
E|-------------------|-------------------|-------------------|-------------------|-----|
B|-------------------|-------------------|-------------------|-------------------|-----|
G|--------0-------0--|--------0-------0--|--------0-------0--|--------0-------0--|-----|
D|------0-------0----|------0-------0----|------0-------0----|------0-------0----|-----|
A|----9-------9------|----7-------7------|----5-------5------|----2-------2------|-----|
E|--9-------9--------|--7-------7--------|--5-------5--------|--2-------2--------|--2--|
        The kind that always, always is   leaving

[Verse 2]
E|-------------------|-------------------|-------------------|-------------------|
B|-------------------|-------------------|-------------------|-------------------|
G|--------0-------0--|--------0-------0--|--------0-------0--|--------0-------0--|
D|------0-------0----|------0-------0----|------0-------0----|------0-------0----| (x2)
A|----0-------0------|----7-------7------|----5-------5------|----0-------0------|
E|--0-------0--------|--7-------7--------|--5-------5--------|--0-------0--------|

E|-------------------|-------------------|-------------------|-------------------|
B|-------------------|-------------------|-------------------|-------------------|
G|--------0-------0--|--------0-------0--|--------0-------0--|--------0-------0--|
D|------0-------0----|------0-------0----|------0-------0----|------0-------0----|
A|----0-------0------|----7-------7------|----5-------5------|----0-------0------|
E|--0-------0--------|--7-------7--------|--5-------5--------|--0-------0--------|
       The walls are gathered, draw me   out           to   the sea
E|-------------------|-------------------|-------------------|-------------------|
B|-------------------|-------------------|-------------------|-------------------|
G|--------0-------0--|--------0-------0--|--------0-------0--|--------0-------0--|
D|------0-------0----|------0-------0----|------0-------0----|------0-------0----|
A|----0-------0------|----7-------7------|----5-------5------|----0-------0------|
E|--0-------0--------|--7-------7--------|--5-------5--------|--0-------0--------|
      Where I can    feel the water   moving
E|-------------------|-------------------|-------------------|-------------------|
B|-------------------|-------------------|-------------------|-------------------|
G|--------0-------0--|--------0-------0--|--------0-------0--|--------0-------0--|
D|------0-------0----|------0-------0----|------0-------0----|------0-------0----|
A|----9-------9------|----7-------7------|----5-------5------|----2-------2------|
E|--9-------9--------|--7-------7--------|--5-------5--------|--2-------2--------|
          I want the pattern  of the   waves,           in me
E|-------------------|-------------------|-------------------|-------------------|-------------|
B|-------------------|-------------------|-------------------|-------------------|-------------|
G|--------0-------0--|--------0-------0--|--------0-------0--|--------0-------0--|--------0----|
D|------0-------0----|------0-------0----|------0-------0----|------0-------0----|------0------|
A|----9-------9------|----7-------7------|----5-------5------|----2-------2------|----2--------|
E|--9-------9--------|--7-------7--------|--5-------5--------|--2-------2--------|--2-------2--|
       I'll hold the mirror    up to    catch    them

[Verse 3]
E|-------------------|-------------------|-------------------|-------------------|
B|-------------------|-------------------|-------------------|-------------------|
G|--------0-------0--|--------0-------0--|--------0-------0--|--------0-------0--|
D|------0-------0----|------0-------0----|------0-------0----|------0-------0----|
A|----0-------0------|----7-------7------|----5-------5------|----0-------0------|
E|--0-------0--------|--7-------7--------|--5-------5--------|--0-------0--------|
          The loneliness I  can't     describe,       in me
E|-------------------|-------------------|-------------------|-------------------|
B|-------------------|-------------------|-------------------|-------------------|
G|--------0-------0--|--------0-------0--|--------0-------0--|--------0-------0--|
D|------0-------0----|------0-------0----|------0-------0----|------0-------0----|
A|----0-------0------|----7-------7------|----5-------5------|----0-------0------|
E|--0-------0--------|--7-------7--------|--5-------5--------|--0-------0--------|
        Like tracing out the shape of   water
E|-------------------|-------------------|-------------------|-------------------|
B|-------------------|-------------------|-------------------|-------------------|
G|--------0-------0--|--------0-------0--|--------0-------0--|--------0-------0--|
D|------0-------0----|------0-------0----|------0-------0----|------0-------0----|
A|----9-------9------|----7-------7------|----5-------5------|----2-------2------|
E|--9-------9--------|--7-------7--------|--5-------5--------|--2-------2--------|
          The mirror's held up  to the    wave,          and read
E|-------------------|-------------------|-------------------|-------------------|-------------|
B|-------------------|-------------------|-------------------|-------------------|-------------|
G|--------0-------0--|--------0-------0--|--------0-------0--|--------0-------0--|--------0----|
D|------0-------0----|------0-------0----|------0-------0----|------0-------0----|------0------|
A|----9-------9------|----7-------7------|----5-------5------|----2-------2------|----2--------|
E|--9-------9--------|--7-------7--------|--5-------5--------|--2-------2--------|--2-------2--|
          Say I'm the one who's always   leaving
00:00 / 00:00
Otros videos de esta canción
Repetir
Otros videos de esta canción
2 exhibiciones
    • ½ Tono
    • A
    • Bb
    • B
    • C
    • Db
    • D
    • Eb
    • E
    • F
    • F#
    • G
    • Ab
  • Agregar a la lista

Afinación de cifrado

Afinador online

    00:00 / 00:00
    OK