Cifra Club

Uber

Grupo Menos É Mais

Cifrado: Principal (guitarra y guitarra eléctrica)
tono: F#m
[Intro]
          
E|------------------------------------------|
B|-5--3--1--0--1--0--1--1--1--0---0---------|
G|----------2--2--2--2--2--2--2---2---------|
D|----------2--2--2--2--2--2--2---2---------|
A|------------------------------------------|
E|----------1--1--1--1--1--1--1---1---------|

[Primeira Parte]

F7M(5-)
Se fosse como antes, você não ia embora

E|------------------------------------------|
B|--0--1--0--1--1--1------------------------|
G|--2--2--2--2--2--2------------------------|
D|--2--2--2--2--2--2------------------------|
A|------------------------------------------|
E|--1--1--1--1--1--1------------------------|

Sem beijar minha boca
A6(9)                        F#m7(11)
Não teria pressa de chamar o Uber
                 F7M(5-)
De botar a roupa
                               G7(4)
Tava sem relógio pra não ver a hora
            G7     A7M
Te levar de mim assim
D9            E/C                F7M(5-)
Quando eu falo, você desconversa
Diz que estou surtando

[Pré-Refrão]

E|------------------------------------------------------|
B|--5--3-------------------------------2--4--2-4-2-4----|
G|----------------------2--4--2-4-2-4-------------------|
D|-------2--4--2-4-2-4----------------------------------|
A|------------------------------------------------------|
E|------------------------------------------------------|
Se tu quisesse tocar no assunto
Não ia embora, dormia junto        
                            D/E       
Ligava nele, fazia ele perder pra mim

[Refrão] 

A                    D
  Ama como eu amo você
             C#m7       D7M
Faz o que jurou me fazer
    Bm7    G7M     E7(13)
Sem me deixar de lado
A                  C#m7
Tá na hora de resolver
          Bm7           C#m7
Se vai ganhar ou vai perder
    Bm7(9)    D/E  
O homem apaixonado

( A  B7/A  Am7  D/A )

A                    D
  Ama como eu amo você
             C#m7       D7M
Faz o que jurou me fazer
    Bm7    G7M     E7(13)
Sem me deixar de lado
A                  C#m7
Tá na hora de resolver
          Bm7           C#m7
Se vai ganhar ou vai perder
    Bm7(9)    D/E    F7M(5-) 
O homem apaixonado
00:00 / 00:00
Otros videos de esta canción
Repetir
Otros videos de esta canción
Composición de Alan Vinicius / Claudemir / Diney
Colaboración y revisión:
  • Fáuster Santana
    • ½ Tono
    • Am
    • Bbm
    • Bm
    • Cm
    • C#m
    • Dm
    • Ebm
    • Em
    • Fm
    • F#m
    • Gm
    • G#m
  • Agregar a la lista

    0 comentarios

    Ver todos los comentarios

    ¿Lograste tocar?

    0 Tocaron 0 Aún no

    ¡Graba un video tocando Uber y envíanoslo!

    00:00 / 00:00
    OK