Cifra Club

La canoa rancháa

Grupo Niche

Cifrado: Principal (guitarra y guitarra eléctrica)
Selo Cifra Club: esta cifra foi revisada para atender aos critérios oficiais da nossa Equipe de Qualidade.
tono: Dm
Intro de las trompetas

         F  Gm           F  Gm

E|-------3--1--3--------3--1--3--|
B|------3--------------3---------|
G|--0--3-----------0--3----------|
D|-------------------------------|
A|-------------------------------|
E|-------------------------------|



          F         Gm       F      Gm A5 Bb

E|------------------------------------------------|
B|---3---1------3-1-----3---1-------3-1-----------|
G|-----3---2-2------3-----3----2-2-------0--2--3--|
D|------------------------------------------------|
A|------------------------------------------------|
E|------------------------------------------------|


   Gm
En esta canoa ranchá
     F               Gm
que tú me mandaste trae
    Bb                Gm
ya viene rompiendo el agua
      Dm          Gm
sólo por ven`te a vé. (bis)

Después sigue el corte

Gm Bb

(Vuelven a sonar las trompetas)


   Gm
Sí mi compadre se muere
       F               Gm
no es por falta de cuida`o
  Bb               Gm
debajo e la cama tiene
       Dm          Gm
su plátano sancocha`o (Bis)


Trompetas intermedias


   Gm        F       Gm        F  Gm
E|---3--3--5--2---6-5-3---3--3--5--2--3--|
B|--3--------------------3---------------|
G|---------------------------------------|
D|---------------------------------------|
A|---------------------------------------|
E|---------------------------------------|


   Gm         F       Gm         F  Gm
E|---3--3--5--2--6-5-3----3--3--5--2--3-3-3-3-|
B|--3--------------------3--------------------|
G|--------------------------------------------|
D|--------------------------------------------|
A|--------------------------------------------|
E|--------------------------------------------|


Gm       F
Adiós canoa
             Gm
Me voy pa` Beté
              F
Rayando la aurora
             Gm
Me voy pa` Beté
              F
Al son de la luna
             Gm
Me voy pa` Beté
             F
Canoita, adiós...
             Gm
Me voy pa` Beté
        F
Ay pá Beté
        Gm
Ay pá Beté
        F
Ay pá Beté
        Gm
Ay pá Beté
            F
Ay adiós canoa...
            Gm
Me voy pa` Beté
             F
Rayando la aurora
             Gm
Me voy pa` Beté
        F
Ay pá Beté
        Gm
Ay pá Beté
        F
Ay pá Beté
       Gm
Ay pá Beté
         F        Bb
¿Y esos panes pá que son?
       D7         Gm
Pa' comelos con café
         F        Bb
¿Y esos panes pá que son?
      D7          Gm
Pa' comelos con café
         F
Adiós canoa...
            Gm
Me voy pa` Beté
                F
Ay rayando la aurora.
            Gm
Me voy pa` Beté
              F
Al son de la luna.
             Gm
Me voy pa` Beté
               F
Rompiendo la bruma.
             Gm
Me voy pa` Beté
        F
Canoita he......
Otros videos de esta canción
    1.079 exhibiciones
      • ½ Tono
      • Am
      • Bbm
      • Bm
      • Cm
      • C#m
      • Dm
      • Ebm
      • Em
      • Fm
      • F#m
      • Gm
      • G#m
    • Agregar a la lista

    Afinação da cifra

    Afinador online

      Ops (: Contenido disponible solo en portugués.
      OK