Cifra Club

GTA 6

GTA

Cifrado: Principal (guitarra y guitarra eléctrica)
Selo Cifra Club: esta cifra foi revisada para atender aos critérios oficiais da nossa Equipe de Qualidade.
tono: Bm
[Intro]

E|-14--14--14--14--14--14--14--14----------------------|
B|-12--12--12--12--12--12--12--12----------------------|
G|-----------------------------------------------------|
D|-----------------------------------------------------|
A|-----------------------------------------------------|
E|-----------------------------------------------------|

E|-12--12--12--12--12--12--12--12----------------------|
B|-15--15--15--14--14--14--14--14----------------------|
G|-----------------------------------------------------|
D|-----------------------------------------------------|
A|-----------------------------------------------------|
E|-----------------------------------------------------|

E|-12--12--12--12--12--12--12--12----------------------|
B|-12--12--12--12--12--12--12--12----------------------|
G|-----------------------------------------------------|
D|-----------------------------------------------------|
A|-----------------------------------------------------|
E|-----------------------------------------------------|

E|-12--12--12--12--12--12--12--12----------------------|
B|-15--15--15--14--14--14--14--14----------------------|
G|-----------------------------------------------------|
D|-----------------------------------------------------|
A|-----------------------------------------------------|
E|-----------------------------------------------------|

[Primeira Parte] Bm  D  A
                 E  D  A

E|-----------------------------------------------------|
B|-/12~~~~p10h12-10------------------------------------|
G|----------------------9----------9-------------------|
D|-----------------------------------------------------|
A|-----------------------------------------------------|
E|-----------------------------------------------------|

E|------------------------------------7--9--10--9----7-|
B|-----------------7----------7---7--------------------|
G|-4-6-7-----9-----------------------------------------|
D|-----------------------------------------------------|
A|-----------------------------------------------------|
E|-----------------------------------------------------|

E|-10-9-7-10-9-7---------------------------------------|
B|---------------10-8-7-10-8-7-------------------------|
G|-----------------------------9-7-6-9-7-6-------------|
D|-----------------------------------------9-7-5-9-7-5-|
A|-----------------------------------------------------|
E|-----------------------------------------------------|

E|-----------------------------------------------------|
B|-----------------------------------------------------|
G|----------------7-----9------------------------------|
D|-9----------7h9--------------------------------------|
A|-----------------------------------------------------|
E|-----------------------------------------------------|

E|----7-----7-----7--9--10------9------------7~--------|
B|-7-----7-----7----------------------10---------------|
G|-----------------------------------------------------|
D|-----------------------------------------------------|
A|-----------------------------------------------------|
E|-----------------------------------------------------|

[Segunda Parte] Bm  E  G  A

   Bm              E               G
E|-----------------------------------------------------|
B|-------3---------------0-----------------------------|
G|-----4-----4---------1-----1-------------------------|
D|---4---------4-----2---------2-----------------------|
A|-2---------------------------------------------------|
E|-----------------0-----------------------------------|

   G                       A
E|-------3---------------------------------------------|
B|-----3-----3-----------3-2---------------------------|
G|---0---------0-------0-----2-------------------------|
D|-------------------0---------2-----------------------|
A|-------------------------------0---------------------|
E|-3---------------3-----------------------------------|

[Terceira Parte] Bm  E  G  A

E|-----------------------------------------------------|
B|-7---------------------------------------------------|
G|-------------9----7--------7--9b11-------------------|
D|---------------------9-------------------------------|
A|-----------------------------------------------------|
E|-----------------------------------------------------|

E|-----------------------------------------------------|
B|--------------------7----------10----12--------------|
G|-7-6------------------------------11-----------------|
D|-----9-----7--9--------------------------------------|
A|-----------------------------------------------------|
E|-----------------------------------------------------|

E|-10---12b14------------------------------------------|
B|-----------------------------------------------------|
G|-----------------------------------------------------|
D|-----------------------------------------------------|
A|-----------------------------------------------------|
E|-----------------------------------------------------|

[Interlúdio] Bm  A  G  A

E|-----------------------------------------------------|
B|-----------------------------------------------------|
G|-4----------6---7-------11----9----------------------|
D|-----------------------------------------------------|
A|-2----------4---5--------9----7----------------------|
E|-----------------------------------------------------|

E|-----------------------------------------------------|
B|-----------------------------------------------------|
G|-4----------6---7-------14---11----------------------|
D|-----------------------------------------------------|
A|-2----------4---5-------12----9----------------------|
E|-----------------------------------------------------|
Otros videos de esta canción
    127 exhibiciones
      • ½ Tono
      • Am
      • Bbm
      • Bm
      • Cm
      • C#m
      • Dm
      • Ebm
      • Em
      • Fm
      • F#m
      • Gm
      • G#m
    • Agregar a la lista

    Afinación de cifrado

    Afinador online

      OK