Cifra Club

Electric Nights

Guano Apes

Cifrado: Principal (guitarra y guitarra eléctrica)
tono: F#
Tuning: Drop D

Intro/Verse:
E|-8-9-9-9-9-9-9-8-9-9-9-9-9-9-9-9-8-9-9-9-9-9-9-8-9-9-9-9-8-9-9-9-8-9-9-9--|
B|-6-7-7-7-7-7-7-6-7-7-7-7-7-7-7-7-6-7-7-7-7-7-7-6-7-7-7-7-6-7-7-7-6-7-7-7--|
G|--------------------------------------------------------------------------|
D|--------------------------------------------------------------------------|
A|--------------------------------------------------------------------------|
D|--------------------------------------------------------------------------|

Chorus:
E|-------------------------------------------------------------|
B|-------------------------------------------------------------|
G|----3----3-3----3-----3-3-3--4--4--4--4-4--------------------|
D|-1--3--1-3-3-1--3--1--3-3-3--4--4--4--4-4-6--6-6-6-6-6-6--6--|
A|-1--1--1-1-1-1--1--1--1-1-1--2--2--2--2-2-6--6-6-6-6-6-6--6--|
D|-1-----1-----1-----1----------------------6--6-6-6-6-6-6--6--|

Verse

Chorus

Bridge: 
 |- - - - - 2x - - - - - -|- - - - - - - - 4x - - - - - - - -|
E|------------------------|-9---9---9---9---9---9---9---9----|
B|------------------------|---7---7---7---7---7---7---7---7--|
G|------------------------|----------------------------------|
D|------------------------|----------------------------------|
A|-/8----\4----\1----1----|----------------------------------|
D|------------------------|----------------------------------|
                          PM..................................

E|-------------------------------------------------|
B|-------------------------------------------------|
G|----3--3-3-3-4--4-4-4-4-4-4-4-4------------------|
D|-1--3--3-3-3-4--4-4-4-4-4-4-4-4-6-6-6-6-6-6-6-6--|
A|-1--1--1-1-1-2--2-2-2-2-2-2-2-2-6-6-6-6-6-6-6-6--|
D|-1------------------------------6-6-6-6-6-6-6-6--|

Chorus

E|------|
B|------|
G|--4---|
D|--4---|
A|--2---|
D|--4---|

End.
00:00 / 00:00
Otros videos de esta canción
Repetir
Otros videos de esta canción
Composición de Guano Apes
14 exhibiciones
    • ½ Tono
    • A
    • Bb
    • B
    • C
    • Db
    • D
    • Eb
    • E
    • F
    • F#
    • G
    • Ab
  • Agregar a la lista
    00:00 / 00:00
    OK