Cifra Club

No speech

Guano Apes

Cifrado: Principal (guitarra y guitarra eléctrica)
tono: Bb
The Second track off of "Don't Give Me Names" 
tuning: DROP D (DADGBE)

INTRO:
gtr1
E-------------------------------------------------------|
B---------------4-------4---------4--------------3------|
G------------5-------5-----------------5-------------5--|
D----------5-------5-----------5----------------5-------|
A--------3~~~~---4~~~~----------------------------------|
D------------------------6~~~~------------3~~~~---------|
gtr2 (fades in)
E-----------|
B-----------|
G--5/-------|
D--5/-------|
A--3/-------|
E-----------|

MAIN RIFF (CHORUS):
gtr1&2
E---------------------------------------------|
B---------------------------------------------|
G---------6-----------------------------------|
D--5------6-----------6--6--6\--3--3--3--3----|
A--3------4------4h6--6--6--6\--3--3--3--3----|
D----------------4----6--6--6\--3--3--3--3----|

gtr3 (overdub lead)
E---------------------------------|
B---------------------------------|
G--7----/8----7/8-8---8-8-7-7-7---|
D---------------------------------|
A--5----/6----5/6-6---6-6-5-5-5---|
D---------------------------------|

E--------------------------------------|
B--------------------------------------|
G--5----/7---8/10----5----/7--/8--/10--|
D--------------------------------------|
A--3----/5---6/8-----3----/5--/6--/8---|
D--------------------------------------|


VERSE:
gtr1.
E-------------------------------------|
B-------------------------------------|
G--------8--10--11-------7--3--3------|
D-------------------------------------|
A---/6------8----9---/5-----1--1------|
D-------------------------------------|

E----------------------------------------|
B----------------------------------------|
G-------8--10--11----------12--14--15----|
D----------------------------------------|
A--/6-----8----9---9/10--------12--13----|
D----------------------------------------|

PRECHORUS:
gtr1 plays verse riff
gtr2
E------------|
B------------|
G------------|
D----8--8----|
A----6--6----|
D----X--X----|

then both gtrs play:
G----5---7---8---|
D----5---7---8---|
A----3---0---6---|
D----X---0---X---|

BRIDGE:
gtr2(pulled down in mix)
G------------------------7---|
D----8-8---8-8---8/10----7---|
A----6-6---6-6---6/8-----5---|
E----X-X---X-X---X/------0---|
gtr1(w/ wah-wah)
E----11--------------------10--|
B------------------------------|
G----8-------------/10-----7---|
D------------------------------|

both gtrs
G-------------------------------------------|
D---10--10--10-----10---10--10--11---6-5----|
A---10--10--10-----10---10--10--11---6-5----|
E---10--10--10-----10---10--10--11---6-5----|

outro overdub:
B------------------------------|
G--12~~~--12~-14~~-\--10~~~~---|
D------------------------------|

key:
/ \ : slide up or down accordingly
h  : hammer-on to from note to note

lyrics:

i'm ready to take off, do it slow
i'm living on the bottom, i've got to go
five little fingers grabbing at the glass
gone those days of running up and down in my cage

it's too late to defend i'm buried, insane
don't you know there's more to life than to win
or are you that kind of stereotype
there's no time, there's no time
there's nothing i could answer

no speech as long as i get nothing
no speech as long as i get nothing
but i've got to get home
so let me free, this is not my home

put away your flashing stick
they try to get close through my head
give me, give me more of your own
a little more don't wanna be nobody's clown

i've got to get home
i've got to get home (oh, boy)

i've gotta gotta got to get
you've gotta gotta got to get
00:00 / 00:00
Otros videos de esta canción
Repetir
Otros videos de esta canción
Composición de Guano Apes / Sandra Nasic
Colaboración y revisión:
  • MALAKIAN
28 exhibiciones
    • ½ Tono
    • A
    • Bb
    • B
    • C
    • Db
    • D
    • Eb
    • E
    • F
    • F#
    • G
    • Ab
  • Agregar a la lista
    00:00 / 00:00
    OK