Cifra Club

Open Your Eyes

Guano Apes

Cifrado: Principal (guitarra y guitarra eléctrica)
tono: G
Spoken(dist.): Hide your face forever, dream and search forever

Intro(4 times):
(play with wahwah effect and Guit.2 only the first two times)

+------------------
|Guitar1(w/wahwah):
|e|--x--x-x-x-x---x--x-x-x-x---|
|B|--x--x-x-x-x---x--x-x-x-x---|
|G|--x--x-x-x-x---x--x-x-x-x---|
|D|--x--4-4-5-5---5--7-7-9-9---|
|A|--2--2-2-3-3---3--5-5-7-7---|
|E|--0--x-x-x-x---x--x-x-x-x---|
|Guitar2(w/wahwah):                           4 x INTRO
|e|----------------------------|
|B|----------------------------|
|G|-----4-4-5-5---5--7-7-9-9---|
|D|--2-------------------------|
|A|----------------------------|
|E|----------------------------|
+------------------

Then let ring, while Bass plays intro solo:
    E5
e|--x-----|
B|--x-----|
G|--x-----|
D|--2~~---|
A|--2~~---|
E|--0~~---|
=20

Verse 1:
    E5 (with a lot of "wammy" effect and vibrato)
e|--x-x-x-x-x--x-x-x-x-x--|
B|--x-x-x-x-x--x-x-x-x-x--|
G|--x-x-x-x-x--x-x-x-x-x--|
D|--2-x-x-x-x--2-x-x-x-x--|
A|--2-x-x-x-x--2-x-x-x-x--|
E|--0-x-x-x-x--0-x-x-x-x--|

(play above over those lyrics)

(break)            E5  G5   E5
e|-----------------x----x----x----------------------------|
B|-----------------x----x----x----------------------------|
G|-----------------x----x----x----------------------------|
D|-----------------9----5----2----------------------------|
A|-----------------7----5----2----------------------------|
E|-----------------0----3----0--(go straight to chorus)---|

CHORUS(fig.1):
    E5 B5  C5    C5 D5  E5 = 20
e|--x--x-x-x-x---x--x-x-x-x----------------|
B|--x--x-x-x-x---x--x-x-x-x----------------|
G|--x--4-4-5-5---5--7-7-9-9----------------|
D|--2--4-4-5-5---5--7-7-9-9----------------|           x 4
A|--2--2-2-3-3---3--5-5-7-7-(slide to E5)--|
E|--0--x-x-x-x---x--x-x-x-0----------------|

(play fig.1 four times with lyrics:)

Fill in:
    E5 (Bass plays intro solo again)
e|--x----------------|
B|--x----------------|
G|--x----------------|
D|--2~~--------------|
A|--2~~--------------|
E|--0~~--(let ring)--|

Verse 2:
(play same pattern as Verse 1 w/lyrics:)

(break)             E5 G5 E5
e|------------------x--x--x----------------------------|
B|------------------x--x--x----------------------------|
G|------------------x--x--x----------------------------|
D|------------------9--5--2----------------------------|
A|------------------7--5--2----------------------------|
E|------------------0--3--0--(go straight to chorus)---|

Play CHORUS (with 4 x fig.1) like before

Bridge(w/wammy pedal, chorus effects, etc.):
(play CHORUS chord pattern)
e|--------------------------|
B|--8-8--7-7--8-8-7---------|
G|------------------8-8-----|    x 4
D|--------------------------|
A|--------------------------|
E|--------------------------|

(play solo)               E5 G5 E5
e|------------------------x--x--x--------------------------|
B|------------------------x--x--x--------------------------|
G|------------------------x--x--x--------------------------|
D|------------------------9--5--2--------------------------|
A|------------------------7--5--2--------------------------|
E|------------------------0--3--0--(go straight to chorus)-|

Play CHORUS x 2 till end

End
    E5 (Bass plays intro solo again)
e|--x-x--x-x--x-x----|
B|--x-x--x-x--x-x----|
G|--x-x--x-x--x-x----|
D|--2-2--2-2--2-2~---|
A|--2-2--2-2--2-2~---|
E|--0-0--0-0--0-0~---|
00:00 / 00:00
Otros videos de esta canción
Repetir
Otros videos de esta canción
Composición de Guano Apes / Sandra Nasic
Colaboración y revisión:
  • Jorge Miguel
98 exhibiciones
    • ½ Tono
    • A
    • Bb
    • B
    • C
    • Db
    • D
    • Eb
    • E
    • F
    • F#
    • G
    • Ab
  • Agregar a la lista
    00:00 / 00:00
    OK