Cifra Club

Wash It Down

Guano Apes

Tab de bajo: Principal
one of my favourite headbang-song
listen and bang!
(it took a long time to find out the solo...)

Intro:

6x
G--14--14--16--16--13--13--15--15--|
D--14--14--13--13--13--13--12--12--|
A--12--12--14--14--11--11--13--13--|
E----------------------------------|

2x
G----------------------------------|
D----------------------------------|
A--------------------------6-6-----|
E--5-5-5-5-7-7-7-7-4-4-4-4--6-6----|

Strophe(wie Part2 vom Intro):

G----------------------------------|
D----------------------------------|
A--------------------------6-6-----|
E--5-5-5-5-7-7-7-7-4-4-4-4--6-6----|

Refrain:

G----------------------------------|
D----------------------------------|
A----------------------------------|
E--8/9-899-89-899-89-899-89-899----|
im zweiten teil durchachteln

Solo:
G--------------14/13/12----14/13/12-------------|
D--------12-14----------14----------14-13-12----|
A--12-13-------------------------------------12-|
E-----------------------------------------------|

Bridge:

G---------------|
D---------------|
A---4--5--6-----|
E--4--5--6--7-3-|


sollte so stimmen aber 100%ig ist nur der tod
also bitte fehler an *
00:00 / 00:00
Otros videos de esta canción
Repetir
Otros videos de esta canción
Composición de Guano Apes / Sandra Nasic
13 exhibiciones
00:00 / 00:00
OK