Cifra Club

My Love

Guasones

Cifrado: Principal (guitarra y guitarra eléctrica)
tono: C
E|---------------------------------------------|
B|----------------------8---------8---8/10-8-8-|
G|--9-7----9-7----9-9-9---9-9-7-9---9----------|
D|------10-----10------------------------------|
A|---------------------------------------------|
E|---------------------------------------------|

E|-----8-7------------8------------------8-10--|
B|--10-----8-8---8/10---10-8----8-10-10--------|
G|-------------9--------------9----------------|
D|---------------------------------------------|
A|---------------------------------------------|
E|---------------------------------------------|

E|-10/12-8-12-10-8-10----8-10/12-15-12-15-12--|
B|--------------------10----------------------|
G|--------------------------------------------|
D|--------------------------------------------|
A|--------------------------------------------|
E|--------------------------------------------|

Pongo solo la primer cuerda , mi (e)

e|-15-12-10-8-10/12-10-8-8---------------|
Composición de Facundo soto
6 vistas
    • ½ Tono
    • A
    • Bb
    • B
    • C
    • Db
    • D
    • Eb
    • E
    • F
    • F#
    • G
    • Ab
  • Agregar a la lista

    0 comentarios

    Ver todos los comentarios

    ¿Lograste tocar?

    0 Tocaron 0 Aún no

    ¡Graba un video tocando My Love y envíanoslo!

    00:00 / 00:00
    Outros vídeos desta música
    Repetir Calidad Automático
    Outros vídeos desta música
    00:00 / 00:00
    Automático
    OK