Cifra Club

Perdón

Guasones

Cifrado: Principal (guitarra y guitarra eléctrica)
tono: D
   Em/E
|1|-------------------------------------------------------
|2|-------0----0---0------------------0-------------------
|3|-0h1-------------------------0h1-------1-----1---------
|4|-----2--------2----2---2---------2--------2-----2----2-
|5|-------------------------------------------------------
|6|-0-------0------0----0-------0-------0-------0-----0---

    C#m
|1|-------------------------------
|2|-----9-------------9-----------
|3|---------9-------------9-------
|4|-----9-----9-------9-----9-----
|5|-------------------------------
|6|-/9----9---------9---9---------

00:32

|1|--------------------------------------------
|2|--------------------------------------------
|3|-------9------11s13----------9--------------
|4|--9-11---11-9-----------9-11---11-9--11-----  X2
|5|--------------------------------------------
|6|--------------------------------------------

00:42

|1|------------------------------
|2|------------------------------
|3|------------------------------
|4|--14--13--11----14--16--18----
|5|------------------------------
|6|------------------------------

Desde 00:50 hasta el estribillo hace lo mismo que en 00:42
Pero le pueden agregar luego del primer fraseo 14 13 11 9

00:58

|1|-12-9-------------------
|2|------------------------
|3|------11r-11-9----------
|4|----------------11-9-11-
|5|------------------------
|6|------------------------
El release bend lo tienen que hacer lentamente
Este fraseo lo alargue porque me parece que lo alarga, pero es engañoso

1:35

|1|--------------
|2|--------------
|3|--------------
|4|--9s11-9------
|5|---------9-7--
|6|--------------

2:30

|1|-------12-------
|2|-12s14----14-12-
|3|----------------
|4|----------------
|5|----------------
|6|----------------

G  O

|1|--------------------------------------------------------
|2|--------------------------------------------------------
|3|-11b-11-9-------9-11----11b-11-9-11-9----------------9--
|4|----------11--11-----------------------11-9------9-11---
|5|-------------------------------------------11-11--------
|6|--------------------------------------------------------

|1|--12---------------------------------------------------------------
|2|12b-12b--12b-12-9--------------------------------------------------
|3|-------------------11b11-9-11r-9-----------------------------------
|4|---------------------------------11-9h11-9h11-9--------------99-11-
|5|------------------------------------------------11-9----9h11-------
|6|-----------------------------------------------------12------------


|1|-14r-14-12-----12-14---14b14b14-14-12-----12---------12--
|2|-----------14------------------------14-12--14-12-14-----
|3|---------------------------------------------------------
|4|---------------------------------------------------------
|5|---------------------------------------------------------
|6|---------------------------------------------------------
Composición de Facundo Soto
18 vistas
    • ½ Tono
    • A
    • Bb
    • B
    • C
    • Db
    • D
    • Eb
    • E
    • F
    • F#
    • G
    • Ab
  • Agregar a la lista

    0 comentarios

    Ver todos los comentarios

    ¿Lograste tocar?

    0 Tocaron 0 Aún no

    ¡Graba un video tocando Perdón y envíanoslo!

    00:00 / 00:00
    Outros vídeos desta música
    Repetir Calidad Automático
    Outros vídeos desta música
    00:00 / 00:00
    Automático
    OK