Cifra Club

De la calle

Ely Guerra

Cifrado: Principal (guitarra y guitarra eléctrica)
tono: Dm
 Gm     Ebm    Bbm    Dm
E|-------------------------------|
B|-------------------------------|
G|----------8-----3------7-------|
D|--5-------8-----3------7-------|
A|--5-------6-----1------5-------|
E|--3----------------------------|


Gm               Ebm  Bbm     Dm
El doble filo que da la soledad
Gm          Ebm          Bbm  Dm
el besa el miedo,para el dolor
Gm         Ebm           Bbm  Dm
la frágil forma sutil de amar
Gm          Ebm          Bbm  Dm
la ingenua fuerza para aguantar

Gm          Ebm          Bbm  Dm
La incierta forma de ir creciendo
Gm          Ebm          Bbm  Dm
lo poco que hay en la obscuridad
Gm        Ebm     Bbm  Dm
es lo que la calle dá
Gm       Ebm      Bbm
la calle de lo que da
      Dm   Gm(se sostiene el acorde 4 tiempos)
y nada más.
 Gm   Ebm         Bbm
*Es el amor, es el amor
          Dm
 lo que se escapa
 Gm    Ebm        Bbm
 Es el amor, es el amor
          Dm
 lo que te abraza(x 2)

(Este arreglo va por sobre los acordes del coro,
se toca en/con slide;esto es resbalando las notas
como en linea recta sobre la cuerda)
E|-----------------------|
B|-----------------------|
G|--7--/--11----4--/--6--|
D|-----------------------|
A|-----------------------|
E|-----------------------|
00:00 / 00:00
Otros videos de esta canción
Repetir
Otros videos de esta canción
Composición de Diego Herrera / Elizabeth Guerra V.
2 exhibiciones
    • ½ Tono
    • Am
    • Bbm
    • Bm
    • Cm
    • C#m
    • Dm
    • Ebm
    • Em
    • Fm
    • F#m
    • Gm
    • G#m
  • Agregar a la lista
    00:00 / 00:00
    OK