Cifra Club

Mi playa

Ely Guerra

Cifrado: Principal (guitarra y guitarra eléctrica)
tono: C
Dm                         E7

E|------------------------|-------------------------|
B|------------------------|-------------------------|
G|----5/7-5-4-------------|--5/7-5-4----------------|
D|-------------7----------|-----------5-------------|
A|---------------8--5-7-8-|-------------5/7---5-7---|
E|------------------------|-----------------8-------|

E|------------------------|-----------------------------|
B|------------------------|-----------------------------|
G|----5/7-5-4-------------|--------4-5-5/7-4------------|
D|-------------5-5/7------|----5-7-----------5-7--5-----|
A|------------------------|--8----------------------8-7-|
E|------------------------|-----------------------------|
00:00 / 00:00
Otros videos de esta canción
Repetir
Otros videos de esta canción
Composición de Ely guerra
66 exhibiciones
    • ½ Tono
    • A
    • Bb
    • B
    • C
    • Db
    • D
    • Eb
    • E
    • F
    • F#
    • G
    • Ab
  • Agregar a la lista
    00:00 / 00:00
    OK