Cifra Club

Código

Gui Monteiro

Cifrado: Principal (guitarra y guitarra eléctrica)
tono: Dm
[Intro] Dm7(9)  Dm7  Gm7(11) 
        Dm7(9)  Dm7  Gm7(11) 

[Primeira Parte]

Dm7(9)   G7(11)  Dm7(9)  
   Parecia
G7(11)     Dm7(9)      G7(11)   Dm7(9)    G7(11)
 Que ia durar um pouco mais
Dm7(9)   G7(11)  Dm7(9)    
Naquele dia
G7(11)       Dm7(9)              G7(11)   Dm7(9)    G7(11)
A gente combinou de se encontrar
Dm7(9)       G7(11)    Dm7(9)      G7(11)
  Passeio leve pelas ruas
Dm7(9)        G7(11)     Dm7(9)        G7(11)
  Um beijo veio assim de forma natural
Dm7(9)        G7(11)     Dm7(9)        G7(11)
  Risadas, sonhos, planos, códigos, desejos
Dm7(9)   G7(11)  Gm7   Am7
  Uma conexão assim não é normal

[Refrão]

Dm7(9)              G7(11)        Dm7(9)
  Aquele papo me induziu a pensar
                         G7(11)        Dm7(9)
Por um segundo achei que era pra ser
                       G7(11)
Depois de um tempo cê parou ligar
     Gm7     Am7           Dm7(9)
Foi só um dia bom e nada mais

Dm7(9)              G7(11)        Dm7(9)
  Aquele papo me induziu a pensar
                         G7(11)        Dm7(9)
Por um segundo achei que era pra ser
                       G7(11)
Depois de um tempo cê parou ligar
      Gm7       Am7             Dm7(9)
No mais, eu sigo minha vida em paz

[Ponte] Dm7(9)  Dm7  Gm7(11)

[Segunda Parte]

Dm7(9)   G7(11)  Dm7(9)  
   Parecia
G7(11)     Dm7(9)      G7(11)   Dm7(9)    G7(11)
 Que ia durar um pouco mais
Dm7(9)   G7(11)  Dm7(9)    
Naquele dia
G7(11)       Dm7(9)              G7(11)   Dm7(9)    G7(11)
A gente se encontrou e se encantou
Dm7(9)
      Jantar em plena luz da lua

E|-----------------------------------------------------|
B|--6/8/6----------------------------------------------|
G|--5/7/5----------------------------------------------|
D|-----------------------------------------------------|
A|-----------------------------------------------------|
E|-----------------------------------------------------|

Dm7(9)         G7(11)     Dm7(9)          G7(11)
  Nas nossas bocas um desejo mais carnal
Dm7(9)         G7(11)       Dm7(9)          G7(11)
  Na pele um cheiro de um olhar meio sem jeito
Dm7(9)   G7(11)  Gm7   Am7        Dm7(9)
  Uma conexão assim não é normal

[Refrão]

Dm7(9)              G7(11)        Dm7(9)
  Aquele papo me induziu a pensar
                         G7(11)        Dm7(9)
Por um segundo achei que era pra ser
                       G7(11)
Depois de um tempo cê parou ligar
     Gm7     Am7           Dm7(9)
Foi só um dia bom e nada mais

Dm7(9)              G7(11)        Dm7(9)
  Aquele papo me induziu a pensar
                         G7(11)        Dm7(9)
Por um segundo achei que era pra ser
                       G7(11)
Depois de um tempo cê parou ligar
      Gm7       Am7             Dm7(9)
No mais, eu sigo minha vida em paz

[Solo]

E|-----------------------------------------------------|
B|-----------------------------------------------------|
G|--------x----------x----------x----------------------|
D|--------x--x-------x----------x----------------------|
A|--0--5--x-----2h3--x--x-------x--x-------------------|
E|--0-----x----------x-----5h7--x-----3h5--------------|

E|-----------------------------------------------------|
B|-----------------------------------------------------|
G|--------x----------x---------------------------------|
D|--------x--x-------x----------3~---------------------|
A|--0--5--x-----2h3--x--x--3h5-------------------------|
E|--0-----x----------x---------------------------------|

E|-----------------------------------------------------|
B|-----------------------------------------------------|
G|--------x----------x----------x----------------------|
D|--------x--x-------x----------x----------------------|
A|--0--5--x-----2h3--x--x-------x--x-------------------|
E|--0-----x----------x-----5h7--x-----3h5--------------|

E|-----------------------------------------------------|
B|-----------------------------------------------------|
G|--------x--------------------------------------------|
D|--------x--x-----------------------------0-----------|
A|--0--5--x-----2h3-----------------0h3h5--------------|
E|--0-----x----------0h3h5--0h5h7----------------------|


[Refrão]

Dm7(9)              G7(11)        Dm7(9)
  Aquele papo me induziu a pensar
                         G7(11)        Dm7(9)
Por um segundo achei que era pra ser
                       G7(11)
Depois de um tempo cê parou ligar
     Gm7     Am7           Dm7(9)
Foi só um dia bom e nada mais

Dm7(9)              G7(11)        Dm7(9)
  Aquele papo me induziu a pensar
                         G7(11)        Dm7(9)
Por um segundo achei que era pra ser
                       G7(11)
Depois de um tempo cê parou ligar
      Gm7       Am7             Dm7(9)
No mais, eu sigo minha vida em paz
00:00 / 00:00
Otros videos de esta canción
Repetir
Otros videos de esta canción
Composición de Gui Monteiro
Colaboración y revisión:
  • Guilherme Monteiro
    • ½ Tono
    • Am
    • Bbm
    • Bm
    • Cm
    • C#m
    • Dm
    • Ebm
    • Em
    • Fm
    • F#m
    • Gm
    • G#m
  • Agregar a la lista

    0 comentarios

    Ver todos los comentarios

    ¿Lograste tocar?

    0 Tocaron 0 Aún no

    ¡Graba un video tocando Código y envíanoslo!

    00:00 / 00:00
    OK