Cifra Club

Aprenda

Ágora

Guilherme de Sá

Tablatura: Principal (guitarra)
tono: F (con acordes en la forma de G) Afinação: D G C F A D
Afinação Drop C: D A F C G C

[Intro]

E|-------------|--------0----|
B|--2-0---0-2--|--2-0-2---2--|
G|--2---2------|--2----------| 2X
D|-------------|-------------|
A|-0-0-0-0-0---|-0-0-0-0-0---|
E|-------------|-------------|

E|-------------------------|
B|--2-0---0-------0-2-0----|
G|--2---2-------2-------2--|
D|-0-0-0-0--2/4--4-4-4-4---|
A|-------------------------|
E|-------------------------|

E|-------------|-------------|
B|----------0--|-------------|
G|--2-2-2------|--1-1-1-1^2--|
D|--------4----|-------------|
A|-------------|-------------|
E|-4-----------|-2-----------|

 A
Vá
Vá, mas não deixe partir
Vá, mas não esqueça

D
Nem lembre-se demais

F#m E              A
Nem ouse-me dizer adeus

E|-------------|--------0----|
B|--2-0---0-2--|--2-0-2---2--|
G|--2---2------|--2----------|
D|-------------|-------------|
A|-0-0-0-0-0---|-0-0-0-0-0---|
E|-------------|-------------|

 A
Vá, deixe um pouco de você
                     D
E leve um pedaço de mim
Mas não me fatie
        F#m
Não me parta
E               A
Guarde-me lá estarei

E|-------------|--------0----|
B|--2-0---0-2--|--2-0-2---2--|
G|--2---2------|--2----------|
D|-------------|-------------|
A|-0-0-0-0-0---|-0-0-0-0-0---|
E|-------------|-------------|

 D       E
Lá, vá remar
       F#m         A
Onde o rio, deixa-lhe 
 D          E
Em minha ágora
      F#m      A
Cheia de querubins

 D
Diga sim ou não
Mas veja
    A
Que eu

E|--------0----|-----------|
B|--2-0-2---2--|--2-0---0--|
G|--2----------|--2---2----|
D|-------------|-----------|
A|-0-0-0-0-0---|-0-0-0-0---|
E|-------------|-----------|

 D
Tenho um refúgio
         A
E ele é seu

E|-------------|-----------|
B|--2-0---0-2--|--2-0---0--|
G|--2---2------|--2---2----|
D|-------------|-----------|
A|-0-0-0-0-0---|-0-0-0-0---|
E|-------------|-----------|

   D
Ou me desmemorie nele
Ou lute por nós dois
        A
Nessas águas

E|-------------|--------0----|
B|--2-0---0-2--|--2-0-2---2--|
G|--2---2------|--2----------| 2X
D|-------------|-------------|
A|-0-0-0-0-0---|-0-0-0-0-0---|
E|-------------|-------------|

 A
Não vá
Fique, apenas esteja
                     D
Fique, sem razão de estar
                  F#m E   
Que o que foge de nós é o encontro
      A
E o início

E|-------------|--------0----|
B|--2-0---0-2--|--2-0-2---2--|
G|--2---2------|--2----------|
D|-------------|-------------|
A|-0-0-0-0-0---|-0-0-0-0-0---|
E|-------------|-------------|

   A
Em seu princípio de saudade
                         D
Onde o que era tudo (eu amei)
                  F#m
No espanto de ser nada
  E                      A
Virou temor (E eu compreendi)

E|-------------|--------0----|
B|--2-0---0-2--|--2-0-2---2--|
G|--2---2------|--2----------|
D|-------------|-------------|
A|-0-0-0-0-0---|-0-0-0-0-0---|
E|-------------|-------------|

 D       E
Lá, vá remar
       F#m         A
Onde o rio, deixa-lhe 
 D          E
Em minha ágora
      F#m      A
Cheia de querubins

 D
Diga sim ou não
Mas veja
    A
Que eu

E|--------0----|-----------|
B|--2-0-2---2--|--2-0---0--|
G|--2----------|--2---2----|
D|-------------|-----------|
A|-0-0-0-0-0---|-0-0-0-0---|
E|-------------|-----------|

 D
Tenho um refúgio
         A
E ele é seu

E|-------------|-----------|
B|--2-0---0-2--|--2-0---0--|
G|--2---2------|--2---2----|
D|-------------|-----------|
A|-0-0-0-0-0---|-0-0-0-0---|
E|-------------|-----------|

   D
Ou me desmemorie nele
    E
Ou lute por nós dois
        A
Nessas águas

[Solo]

E|--------0----|--------0----|
B|--2-0-2---2--|--2-0-2---2--|
G|--2----------|--2----------|
D|-------------|-------------|
A|-0-0-0-0-0---|-0-0-0-0-0---|
E|-------------|-------------|

E|--2-0-2-5-2--2-0-2-5-2/4--5-4-2-4-5--5-4-5---7--|
B|--3-3-3-5-3--3-3-3-5-3-5--5-5-3-5-5--5-5-5-5----|
G|------------------------------------------------|
D|-0----------0------------0----------0-----------|
A|------------------------------------------------|
E|------------------------------------------------|

E|--9^0-7^0-4^0------0-7-5-2--|
B|---------------0^2-----5-2--|
G|----------------------------|
D|----------------------------|
A|-0---0---0---0--------------|
E|----------------------------|

E|-------------------9-12-12/14-9----------|
B|-------------10-12----------------12-----|
G|--------9-11--------------------11----7--|
D|-7/9-11------------------------------7---|
A|-----------------------------------------|
E|-----------------------------------------|
´
   (Harmônicos)
E|--------5-----|
B|--------5-----|
G|-7------5-----|
D|-7-7-12-------|
A|---7----------|
E|--------------|

E|--------0----|-----------|
B|--2-0-2---2--|--2-0---0--|
G|--2----------|--2---2----|
D|-------------|-----------|
A|-0-0-0-0-0---|-0-0-0-0---|
E|-------------|-----------|

 D
Diga sim ou não
Mas veja
    A
Que eu

E|--------0----|-----------|
B|--2-0-2---2--|--2-0---0--|
G|--2----------|--2---2----|
D|-------------|-----------|
A|-0-0-0-0-0---|-0-0-0-0---|
E|-------------|-----------|

 D
Tenho um refúgio
         A
E ele é seu

E|--------0----|--------0----|
B|--2-0-2---2--|--2-0-2---3--|
G|--2----------|--2----------|
D|-------------|-------------|
A|-0-0-0-0-0---|-0-0-0-0-0---|
E|-------------|-------------|

   D
Ou me desmemorie nele
Ou lute por nós dois
        A
Nessas águas

E|--------0----|--------0------|
B|--2-0-2---2--|--2-0-2---2/3--|
G|--2----------|--2------------|
D|-------------|---------------|
A|-0-0-0-0-0---|-0-0-0-0-0-----|
E|-------------|---------------|

   D
Ou me desmemorie nele
Ou lute por nós dois
        A
Nessas águas

E|--------0----|-------------|
B|--2-0-2---2--|--2-0---0-2--|
G|--2----------|--2---2------|
D|-------------|-------------|
A|-0-0-0-0-0---|-0-0-0-0-0---|
E|-------------|-------------|

E|--------0----|-------------|
B|--2-0-2---2--|--2-0---0----|
G|--2----------|--2---2---2--|
D|-------------|-------------|
A|-0-0-0-0-0---|-0-0-0-0--0--|
E|-------------|-------------|
Composição de Guilherme De Sá
Colaboración y revision:
  • Daniel Silva
  • Tarsio Silva
  • Filipe Figueiredo
497 reproducciones
    • ½ Tono
    • A
    • Bb
    • B
    • C
    • Db
    • D
    • Eb
    • E
    • F
    • F#
    • G
    • Ab
  • Adicionar à lista

    0 comentarios

    Ver todos os comentários

    ¿Conseguiste tocar?

    3 Tocaram 2 Ainda não

    Grave um vídeo tocando Ágora e nos envie!

    00:00 / 00:00
    outros vídeos desta música
    repetir qualidade Automático
    Outros vídeos desta música
    00:00 / 00:00
    Automático
    OK