Cifra Club

A Culpa É Sua

Guilherme & Santiago

Cifrado: Principal (guitarra y guitarra eléctrica)
tono: B
Introdução: E  F#  B  B4 B
Solo:

e|-------------------------------------------------|
B|-------------------------------------------------|
G|-/8---8-8/6-6/4-4---/9-9/8-8/6-6---6/8-8/6-6/4-4-|
D|-------------------------------------------------|
A|-/6---6-6/4-4/2-2---/7-7/6-6/4-4---4/6-6/4-4/2-2-|
E|-------------------------------------------------|

                            F#
Se eu tô bebendo, a culpa é sua...
                             B       B7
Se eu tô chorando, a culpa é sua...
                        E                       F# 
Se eu tô sofrendo de paixão, dói demais meu coração,
            B
E a culpa é toda sua...

(F#  B  B7  E  F#  B  B4 B)

e|--11--11--11--11s14------14--14--14-16-------11-11-11-11-9-9-7-7--|
B|12--12--12--12-----14--14--14--14-----16-12-----------------------|
G|------------------------------------------------------------------|
D|------------------------------------------------------------------|
A|------------------------------------------------------------------|
E|------------------------------------------------------------------|

e|-7-9s12-12-11-11-9-9--9-11-11--9-9-7-7-------|
B|----------------------------------------7-9-7|
G|---------------------------------------------|
D|---------------------------------------------|
A|---------------------------------------------|
E|---------------------------------------------|
       (este solo na verdade é feito na sanfona, mas fica bom assim no violao tb...experimentem!)

                      B
Depois que você foi embora,
               E
a minha vida é só sofrer,
                   C#m                    F#
Ando sozinho pelas ruas, sentindo saudade sua,
                  B      B4 B
Com vontade de te ver
                      B
Meu coração tá sem destino,
                 E
E a solidão me invade,
                    C#m                    F#
Eu sinto falta de você, bebendo tento esquecer
                 B           B4 B
Pelos bares da cidade

                            F#
Se eu tô bebendo, a culpa é sua...
                             B       B7
Se eu tô chorando, a culpa é sua...
                        F#                      E 
Se eu tô sofrendo de paixão, dói demais meu coração,
            B
E a culpa é toda sua...
                            F#
Se eu tô bebendo, a culpa é sua...
                             B       B7
Se eu tô chorando, a culpa é sua...
                        E                       F# 
Se eu tô sofrendo de paixão, dói demais meu coração,
            B
E a culpa é toda sua...

F#  B  B7  E  F#  B  B4 B

Repete a música inteira

"Preste atenção no refrão!!"
Quando ele canta ...se eu tô sofrendo de paixão...
Na primeira vez é F#  E, e na segunda vez é E  F#
00:00 / 00:00
Otros videos de esta canción
Repetir
Otros videos de esta canción
Composición de DIEGO / Mariosan
Colaboración y revisión:
  • João Sousa
  • Giovanni Marçal
152 exhibiciones
    • ½ Tono
    • A
    • Bb
    • B
    • C
    • Db
    • D
    • Eb
    • E
    • F
    • F#
    • G
    • Ab
  • Agregar a la lista
    00:00 / 00:00
    OK