Cifra Club

Dar

Guillotina

Cifrado: Principal (guitarra y guitarra eléctrica)
Selo Cifra Club: esta cifra foi revisada para atender aos critérios oficiais da nossa Equipe de Qualidade.
tono: Dm
 Riff A


    Primera guitarra
                              x 1                          x 1
E|----------------------------|----------------------------|
B|----5h6p5-------------------|----5h6p5-------------------|
G|----------5-4--7-x-x-7--7---|----------5-4---------------|
D|---------------7-x-x-7---7--|---------------5-x-x-5----5-|
A|--0------------5-x-x-5----5-|--0------------5-x-x-5---5--|
E|----------------------------|---------------3-x-x-3--3---|

    Segunda guitarra
                        x 1                    x 1
E|--0-------------------|--0-------------------|
B|--1-------------------|--1-------------------|
G|--2-----------7-x-x-7-|--2-------------------|
D|--2-----------7-x-x-7-|--2-----------5-x-x-5-|
A|--0-----------5-x-x-5-|--0-----------5-x-x-5-|
E|----------------------|--------------3-x-x-3-|



  Riff B (con pequeñas variaciones)
                    x 1                  x 1
E|-------------0----|--------------------|
B|-------1-----3--3-|--------1-----------|
G|-----2-------2--2-|----------2---------|
D|--2------2---0--0-|-----2---------5--5-|
A|--0---------------|--0------------5--5-|
E|------------------|---------------3--3-|


  Riff C

E|-------------------|
B|-------------------|
G|-------------------|
D|--2-x-x-2--5--5--5-|
A|--2-x-x-2--5--5--5-|
E|--0-0-0-0--3--3--3-|
          PM
Otros videos de esta canción
      • ½ Tono
      • Am
      • Bbm
      • Bm
      • Cm
      • C#m
      • Dm
      • Ebm
      • Em
      • Fm
      • F#m
      • Gm
      • G#m
    • Agregar a la lista

    Afinación de cifrado

    Afinador online

      OK