Cifra Club

No da igual

Guillotina

Cifrado: Principal (guitarra y guitarra eléctrica)
Selo Cifra Club: esta cifra foi revisada para atender aos critérios oficiais da nossa Equipe de Qualidade.
tono: F#
Intro

E|-----------------------------------------------------------------------------------0---|
B|------0---0---0---0----0---1--1--1--1----0---0---0---0----0---0---0---0-------0--------|
G|------1---1---1---2p1-1---0--0--0--0----1---1---1---2p1-1---4---4---4------------------|
D|------2---2---2---2----2---2--2--2--2----2---2---2---2----2---4---4---4----------------|
A|------2---2---2---2----2---3--3--3--3----2---2---2---2----2---2---2---2----------------|
E|------0---0---0---0----0-------------------0---0---0---0----0--------------------------|

En los versos repite lo de el intro solo que sin utilizar el acorde Si (B)

Pre-coro
E|---------------------------------------------------------------------------|
B|---------------------------------------------------------------------------|
G|---------------------------------------------------------------------------|
D|----7/9---9---9---9---7/9---9---9---7/9---9---------------------------|
A|----7/9---9---9---9---7/9---9---9---7/9---9---------------------------|
E|----5/7---7---7---7---5/7---7---7---5/7---7---------------------------|

Coro
(En el coro repite lo de los versos con un poco de distorsion u overdrive)

Post-coro

E|------------------------------------------------------------------------------------|
B|------------------------------------------------------------------------------------|
G|------------------------------------------------------------------------------------|
D|--7---7---7---7---7---7---7------------------------------------------------------|
A|--7---7---7---7---7---7---7--------7-6-5v~~-----------------------------------|
E|--5---5---5---5---5---5---5----5-------------------------------------------------|

Antes del solo va esto:

E|--------------------------------------------------------------------------------------------|
B|--------------------------------------------------------------------------------------------|
G|--------------------------------------------------------------------------------------------|
D|------9/11--11--11--11---------9/11--11--11----11/14---14---14---14---12/14---14---14-------|
A|------9/11--11--11--11---------9/11--11--11----11/14---14---14---14---12/14---14---14-------|
E|------7/9----9---9---9-----------7/9----9----9------9/12---12---12---12---10/12---12---12---|
Solo: (No es exacto pero a partir de ahí lo puedes sacar bien)

E|--------------------------------------------------------------------------------------------|
B|--------------------------------------------------------------------------------------------|
G|---------------------12-11-12-12v~~--12-11-------14b-14-12-14b-14-12-14-12------------------|
D|----------------14--------------------------------12----------------------------------------|
A|---12-14-12---------------------------------------------------------------------------------|
E|--------------------------------------------------------------------------------------------|

E|--------------------------------------------------------------------------------------------|
B|---------------------15b-15-13-12-12v~~h13---------------------12---------------------------|
G|--11-11h12p12--------------------------------------14-12-14-12------------------------------|
D|--------------------------------------------------------------------------------------------|
A|--------------------------------------------------------------------------------------------|
E|--------------------------------------------------------------------------------------------|

E|-------------------------------------------------------------------------------------------|
B|-------------------------------------------------------------------------------------------|
G|----14-12--14-12--11| —11h12p11—12p11—12p11------------------------------|
D|-----------------------------------------------------------------14-----------------------|
A|-------------------------------------------------------------------------------------------|
E|-------------------------------------------------------------------------------------------|


SÍMBOLOS:

/ = Slide
p = Pull of
h = Hammer on
v~~ =Vibrato
Otros videos de esta canción
    3 exhibiciones
      • ½ Tono
      • A
      • Bb
      • B
      • C
      • Db
      • D
      • Eb
      • E
      • F
      • F#
      • G
      • Ab
    • Agregar a la lista

    Afinación de cifrado

    Afinador online

      OK