Cifra Club

Respirar

Guillotina

Cifrado: Principal (guitarra y guitarra eléctrica)
Selo Cifra Club: esta cifra foi revisada para atender aos critérios oficiais da nossa Equipe de Qualidade.
tono: C
   C      F      G     C/B
E|--0------x------3------x-----|
B|--1------1------3------1-----|
G|--0------2------0------0-----|
D|--2------3------0------0-----|
A|--3------x------2------2-----|
E|--3------x------3------x-----|


Intro

       C       C/B      F                    F
E|-----------------------------------| |---------------|
B|--------------------------1-----1--| |-----1-----1---|
G|---0------0---0---0----------2-----| 2   |--------2------|
D|---2--2-2--2--0-0--0---3-----------| veces |--3------------|
A|---3--3-3-----2-2------------------| |---------------|
E|-----------------------------------| |---------------|

C                        F
Hundí lo más obscuro que hay en mí tratando de olvidar
C                    F
cai pudiendo solo desunir las partes imposibles de rearmar
C                           F
arranque nuestro interior para romper lo que dejo de ser

G                    F
y al fin cai en la realidad
G                 F
ser victima de tu frialddad
G        F                 G
calle de mas, no dejo de sangrar
           F           C
me niego a regresar jamas

C                F
Sufri y el alma yéndose de mí queriendo rescatar
C                     F
y estar bebiendo toda tu maldad trate de acabar con mi intranquilidad
C                      F
confundi la forma de poder decir que al coraje vi morir

G                    F
y al fin cai en la realidad
G                 F
ser victima de tu frialddad
G        F                 G
calle de mas, no dejo de sangrar
           F           C
me niego a regresar jamas

       C       C/B      F
E|-----------------------------------|
B|--------------------------1-----1--|
G|---0------0---0---0----------2-----|
D|---2--2-2--2--0-0--0---3-----------|
A|---3--3-3-----2-2------------------|
E|-----------------------------------|

[Solo]

G                   F
la unica razon por la que estoy
G                F
aqui es verte ya morir
G                    F
y al fin cai en la realidad
G                 F
ser victima de tu frialddad
G        F                 G
calle de mas, no dejo de sangrar
              F             C
me niego a regresar una vez mas
Otros videos de esta canción
    6 exhibiciones
      • ½ Tono
      • A
      • Bb
      • B
      • C
      • Db
      • D
      • Eb
      • E
      • F
      • F#
      • G
      • Ab
    • Agregar a la lista

    Afinación de cifrado

    Afinador online

      OK