Cifra Club

Barracuda

Guitar Hero

Cifrado: Principal (guitarra y guitarra eléctrica)
Selo Cifra Club: esta cifra foi revisada para atender aos critérios oficiais da nossa Equipe de Qualidade.
tono: E
[Intro] E5  F#5  G5  G6
        E5  F#5  G5  G6
        E5  F#5  G5  G6
        E5  F#5  G5  G6

[Tab - Intro]

Parte 1 de 8
E|------------------------------------------|
B|------------------------------------------|
G|------------------------------------------|
D|-2--2-2-2--2-2-2--2-2-2--2-2--------------|
A|-2--2-2-2--2-2-2--2-2-2--2-2--------------|
E|-0--0-0-0--0-0-0--0-0-0--0-0--------------|

Parte 2 de 8
                             H.N. .
E|---------------------------12~--24~-------|
B|---------------------------12~--24~-------|
G|---------------------------12~--24~-------|
D|-2--2-2-2--2-2-2--2-2-4-5--12~--24~--5\---|
A|-2--2-2-2--2-2-2--2-2-4-5------------5\---|
E|-0--0-0-0--0-0-0--0-0-2-3------------3\---|

Parte 3 de 8
E|------------------------------------------|
B|------------------------------------------|
G|------------------------------------------|
D|-2--2-2-2--2-2-2--2-2-2--2-2--------------|
A|-2--2-2-2--2-2-2--2-2-2--2-2--------------|
E|-0--0-0-0--0-0-0--0-0-0--0-0--------------|

Parte 4 de 8
E|---------------------------0--------------|
B|---------------------------0--------------|
G|---------------------------0--12~---------|
D|-2--2-2-2--2-2-2--2-2-4-5--5--12~---------|
A|-2--2-2-2--2-2-2--2-2-4-5--5--------------|
E|-0--0-0-0--0-0-0--0-0-2-3--3--------------|

Parte 5 de 8
E|------------------------------------------|
B|------------------------------------------|
G|------------------------------------------|
D|-2--2-2-2--2-2-2--2-2-2--2-2--------------|
A|-2--2-2-2--2-2-2--2-2-2--2-2--------------|
E|-0--0-0-0--0-0-0--0-0-0--0-0--------------|

Parte 6 de 8
                             H.N.
E|---------------------------12~------------|
B|---------------------------12~------------|
G|---------------------------12~------------|
D|-2--2-2-2--2-2-2--2-2-4-5--12~------------|
A|-2--2-2-2--2-2-2--2-2-4-5-----------------|
E|-0--0-0-0--0-0-0--0-0-2-3---------12/-----|

Parte 7 de 8
E|------------------------------------------|
B|------------------------------------------|
G|------------------------------------------|
D|-2--2-2-2--2-2-2--2-2-2--2-2--------------|
A|-2--2-2-2--2-2-2--2-2-2--2-2--------------|
E|-0--0-0-0--0-0-0--0-0-0--0-0--------------|

Parte 8 de 8
E|---------------------------0--------------|
B|---------------------------0--------------|
G|---------------------------0--------------|
D|-2--2-2-2--2-2-2--2-2-4-5--5--------------|
A|-2--2-2-2--2-2-2--2-2-4-5--5--------------|
E|-0--0-0-0--0-0-0--0-0-2-3--3--------------|

[Primeira Parte] 

     E5
So this ain't the end
                   C5
I saw you again today
                            E5
I had to turn my heart away

You smiled like the sun
                C5
Kisses for everyone
                    E5
And tales it never fails!

[Refrão] 

[Tab - Refrão]

E|------------------------------------------|
B|-------------------------------------3----|
G|-------------------------------------2--2-|
D|-5-5-2--------2-4-5-4-2-0------------0--2-|
A|-3-2-0-2-2-2--3-5-7-5-3-2-3-2-x-2-2-----0-|
E|-------0-0-0--------------5-0-x-0-0-------|

              C5                 E5
You're lying so low in the weeds
   C5                        E5
I bet you're gonna ambush me
               D5
You'd have me down
                       A5
Down, down, down on my    knees
                          E5
Now wouldn't you, barracuda?

[Riff] F#5  G5  G6
       E5  F#5  G5  G6

[Tab - Riff]

Parte 1 de 4
E|------------------------------------------|
B|------------------------------------------|
G|------------------------------------------|
D|-2--2-2-2--2-2-2--2-2-2--2-2--------------|
A|-2--2-2-2--2-2-2--2-2-2--2-2--------------|
E|-0--0-0-0--0-0-0--0-0-0--0-0--------------|

Parte 2 de 4
                             H.N. .
E|---------------------------12~--24~-------|
B|---------------------------12~--24~-------|
G|---------------------------12~--24~-------|
D|-2--2-2-2--2-2-2--2-2-4-5--12~--24~-------|
A|-2--2-2-2--2-2-2--2-2-4-5-----------------|
E|-0--0-0-0--0-0-0--0-0-2-3-----------------|

Parte 3 de 4
E|------------------------------------------|
B|------------------------------------------|
G|------------------------------------------|
D|-2--2-2-2--2-2-2--2-2-2--2-2--------------|
A|-2--2-2-2--2-2-2--2-2-2--2-2--------------|
E|-0--0-0-0--0-0-0--0-0-0--0-0--------------|

Parte 4 de 4
                                H.N.
E|---------------------------0--------------|
B|---------------------------0--24~---------|
G|---------------------------0-----24~------|
D|-2--2-2-2--2-2-2--2-2-4-5--5--------------|
A|-2--2-2-2--2-2-2--2-2-4-5--5--------------|
E|-0--0-0-0--0-0-0--0-0-2-3--3--------------|

[Tab - Solo]

H.N.  . .  . .  . .
E|-12---------------------------------------|
B|------12----------------------------------|
G|----7------12-----------------------------|
D|---------7------12------------------------|
A|--------------7---------------------------|
E|------------------------------------------|

[Segunda Parte] 

 E5
Back over time when we were all 
             C5
Trying for free
                          E5
You met the porpoise and me

No right, no wrong

You're selling a song
   C5  E5
A name,   whisper game

[Refrão] 

[Tab - Refrão]

E|------------------------------------------|
B|-------------------------------------3----|
G|-------------------------------------2--2-|
D|-5-5-2--------2-4-5-4-2-0------------0--2-|
A|-3-2-0-2-2-2--3-5-7-5-3-2-3-2-x-2-2-----0-|
E|-------0-0-0--------------5-0-x-0-0-------|

            C5
And if the real thing
                   E5 
Don't do the trick
           C5                     E5
You better    make up something quick
           D5
You gonna burn, burn, burn
                      A5
Burn, burn it to the wick
               E5
Ooooh, barracuda!

Oooh, yeah!

[Tab - Riff]

Parte 1 de 4
E|------------------------------------------|
B|------------------------------------------|
G|------------------------------------------|
D|-2--2-2-2--2-2-2--2-2-2--2-2--------------|
A|-2--2-2-2--2-2-2--2-2-2--2-2--------------|
E|-0--0-0-0--0-0-0--0-0-0--0-0--------------|

Parte 2 de 4
E|------------------------------------------|
B|------------------------------------------|
G|------------------------------------------|
D|-2--2-2-2--2-2-----7/9--------------------|
A|-2--2-2-2--2-2-5/7-5/7--------------------|
E|-0--0-0-0--0-0-3/5------------------------|

Parte 3 de 4
E|------------------------------------------|
B|------------------------------------------|
G|------------------------------------------|
D|-2--2-2-2--2-2-2--2-2-2--2-2--------------|
A|-2--2-2-2--2-2-2--2-2-2--2-2--------------|
E|-0--0-0-0--0-0-0--0-0-0--0-0--------------|

Parte 4 de 4
E|------------------------------------------|
B|------------------------------------------|
G|------------------------------------------|
D|-2--2-2-2--2-2-----7/9--------------------|
A|-2--2-2-2--2-2-5/7-5/7--------------------|
E|-0--0-0-0--0-0-3/5------------------------|

[Ponte] 

 C5
Sell me sell you, the porpoise said
 A5                               E5
Dive down deep down, deeper than you

I think that you got the blues too
C5
All that night and all the next
  A5
Swam without looking back
                      E5
Made for the western pools
Riff
     Silly, silly fools!

[Tab - Riff]

E|------------------------------------------|
B|------------------------------------------|
G|------------------------------------------|
D|-2--2-2-2--2-2-2--2-2-2--2-2-2-4-5-7------|
A|-2--2-2-2--2-2-2--2-2-2--2-2-2-4-5-7------|
E|-0--0-0-0--0-0-0--0-0-0--0-0-0-2-3-5------|

E|------------------------------------------|
B|------------------------------------------|
G|------------------------------------------|
D|-2--2-2-2--2-2-2--2-2-2--2-2-2-4-5-7------|
A|-2--2-2-2--2-2-2--2-2-2--2-2-2-4-5-7------|
E|-0--0-0-0--0-0-0--0-0-0--0-0-0-2-3-5------|

[Solo] C5  A5  E5
       C5  A5  E5

[Tab - Solo]

Parte 1 de 6
E|------------------14b15--b15r14--14-15-17-|
B|-15b17-b17r15-12--------------------------|
G|------------------------------------------|
D|------------------------------------------|
A|------------------------------------------|
E|------------------------------------------|

Parte 2 de 6
E|------------------------------------------|
B|-14--15-17--------------------------------|
G|-----------14--15-16/--12-14-12-----------|
D|-----------------------12-14-12--12\------|
A|------------------------------------------|
E|------------------------------------------|

Parte 3 de 6
E|-------------------12-14-15-14-12---------|
B|-14b16r14p12----------------------15-12---|
G|------------------------------------------|
D|-------------14~\-------------------------|
A|------------------------------------------|
E|------------------------------------------|

Parte 4 de 6
E|-12-14-15-17-17b18r17-15-17b19r17p15------|
B|-------------------------------------17~\-|
G|------------------------------------------|
D|------------------------------------------|
A|------------------------------------------|
E|------------------------------------------|

Parte 5 de 6
E|-15p12----12-15p12----12-15p12----12------|
B|-------15----------15----------15---------|
G|------------------------------------------|
D|------------------------------------------|
A|------------------------------------------|
E|------------------------------------------|

Parte 6 de 6
E|-15p12------------------------------------|
B|-------15p12-----12~\---------------------|
G|-------------14--12~\---------------------|
D|------------------------------------------|
A|------------------------------------------|
E|------------------------------------------|

[Refrão] 

[Tab - Refrão]

E|------------------------------------------|
B|-------------------------------------3----|
G|-------------------------------------2--2-|
D|-5-5-2--------2-4-5-4-2-0------------0--2-|
A|-3-2-0-2-2-2--3-5-7-5-3-2-3-2-x-2-2-----0-|
E|-------0-0-0--------------5-0-x-0-0-------|

     C5                       E5
The real thing don't do the trick, no?
           C5                     E5
You better    make up something quick
           D5
You gonna burn, burn, burn
                      A5
Burn, burn it to the wick
E5
Aaah, barra-barracuda! Yeah!

[Final] E5
Otros videos de esta canción
    127.179 exhibiciones
      • ½ Tono
      • A
      • Bb
      • B
      • C
      • Db
      • D
      • Eb
      • E
      • F
      • F#
      • G
      • Ab
    • Agregar a la lista

    Afinación de cifrado

    Afinador online

      OK