Cifra Club

Ain't It Fun

Guns N' Roses

Tablatura: Principal
reproducciones 4.438
Tono: D
(intro): ( B5 D5 A5 G5 B5 ) (4x)
           G5 B5 G5 B5 D5 A5 B5 G5 D5 A5 TODOS ACORDES DA GUITARRA BASE SÃO POWER CHORDS
           B5 D5 A5 B5 G5 D5 A5 B5 Obs:O dedilhado da intro na guitar base utiliza apenas 3 cordas do acorde!

|------------------------------------------------------------------------|
|---------------------------------------------------------10--12--10/12^^|
|----------------------------------------------9------11-----------------|
|-------------------------6-8^^^^^^-----9--12-----12---------------------|
|------------------6--8--------------------------------------------------|
|---6~~--6--8--9---------------------------------------------------------|

|-----10--12fb12--10--12--10---------10b---------------------------------|
|-12--------------------------12----------12--10/12----12--10------------|
|--------------------------------------------------------------11--9b----|
|------------------------------------------------------------------------|
|------------------------------------------------------------------------|
|------------------------------------------------------------------------|

|------------------------------------------------------------------------|
|---------------------12-------------------------------------------------|
|-----9------/11--14------14--9h10p9------9------10p9--------------------|
|-12-----12---------------------------12-----12--------12--9--12p11------|
|------------------------------------------------------------------12/14-|
|------------------------------------------------------------------------|

|------------------------------------------------------------------------|
|------------------------------------------------------------------------|
|-------9------/11----11--9------9--------9------11--11--9------9--------|
|9--12-----12----------------12-----12-------12-------------12-----12--9-|
|------------------------------------------------------------------------|
|------------------------------------------------------------------------|

|-----------10-------------------------9---------------------------------|
|--------------------------------------10------------------------10-10---|
|-9------9fb--------9--------9------9fb--------9--------------9fb11-11---|
|----12---------12-----12-------12---------12-----9----9--12-------------|
|------------------------------------------------------------------------|
|------------------------------------------------------------------------|

|------------------------------------------------------------------------|
|------------------------------------------------------------------------|
|-----9------9------10b--9------9----------------------------------------|
|-12-----12-----12----------12-----11--12--9--11------9------------------|
|-------------------------------------------------12---------------------|
|------------------------------------------------------------------------|

B5                       D5      A5          G5 B5
 Ain't it fun when you're always on the run?
|-------------|
|-------------|
|-------------|
|----X--9^^---|
|-------9^^---|
|-------------|
                       D5
 Ain't it fun when your friends despise
A5          G5    B5
 What you become?
|-------------|
|-------------|
|---------7^^-|
|-X-9-7-9-7^^-|
|---9-7-9-----|
|-------------|
G5                      B5
 Ain't it fun when you get so high?
G5                           B5
 With that you just can't come?
|---------|
|---------|
|-7-------|
|---7-9^^-|
|---------|
|---------|
D5        A5            B5
 Ain't fun when you know?
       G5             D5
 That you gonna die young?

D5    A5

B5 A5 Obs:Fique variando entre os power chords de B e A,também use isso no refrão

Such Fun! 9x
guitarra Solo:
|---------------|
|---------------|
|---------------|
|---------------|
|-9/7/9/7/9/7/9-|
|-7/5/7/5/7/5/7-|

guitarra Base:
G5  A5  (B5 A5)Fique variando conforme o ritmo da música

Such!!

Guitarra Base:B5 D5 A5 G5 B5

Guitarra Solo:
|----------------|----------|
|---10-----------|----------|
|---9b---7-9-7-9-|-9-7------|
|-9^-------------|------9^^-|
|----------------|----------|
|----------------|----------|
B5                       D5             A5           G5
 Ain't it fun when you're talking care of number one?
|----------------|
|----------------|
|-*-7-9-7-9b-----|
|-*----------9^^^|
|----------------|
|----------------|
B5                    D5              A5            G5 B5
 Ain't it fun when you feel like just got get a gun?
|----------------------|
|-------------10-12^^^-|
|-7-9-11-7-11----------|
|----------------------|
|----------------------|
|----------------------|
G5                     B5
 Ain't it fun when you just
       G5                       B5
 can't seem to find your tongue?
|-10---------|
|----10h12~~-|
|------------|
|------------|
|------------|
|------------|
D5            A5
 Cause you stuck it too deep
B5      G5                    D5
 into something that really stung
|-14-14p12p10-7-|
|---------------|
|---------------|
|---------------|
|---------------|
|---------------|
It's such fun!

guitarra Solo:
|---------------|
|---------------|
|---------------|
|---------------|
|-9/7/9/7/9/7/9-|
|-7/5/7/5/7/5/7-|

 guitarra Base:
Obs:Palm Mute(Abafar as cordas)Pois nessa hora a música fica pesada!

G5                     A5

so you come up to me to spit right in my face,
        D5                      B5
I didn't even feel, it was such a disgrace
   G5                           A5
I punched my fist right through the glass
        D5                  B5
I didn't even feel, it happened so fast!

It's such fun! 12x REPETIR OS ACORDES DO REFRÃO

|-12b---12-12-12-12-12-12-12-12-12-12-12-12---12-12r-----------------|
|----------------------------------------------------15-15b-b--12-12-|
|--------------------------------------------------------------------|
|--------------------------------------------------------------------|
|--------------------------------------------------------------------|
|--------------------------------------------------------------------|

|-------14-17b-14-17-----|----------------------------------|
|-12-15--------------17b-|17-15-15p14-15p14---12-14b-p12-12-|
|------------------------|----------------------------------|
|------------------------|----------------------------------|
|------------------------|----------------------------------|
|------------------------|----------------------------------|
B5                      D5       A5             G5
 Ain't it fun when you tell her she's just a cunt?
|-7---------------------7-|
|---10-7---------7-10-7---|
|--------9-9-9b-----------|
|-------------------------|
|-------------------------|
|-------------------------|
B5                          D5         A5       G5 B5
  Ain't it fun when she spirits leaves you a bun?
|------7-9-7--------------|
|-7-10-------10-12--12b---|
|-------------------------|
|-------------------------|
|-------------------------|
|-------------------------|

G5                       B5
 Ain't it fun when you broken up every band
G5                   B5
 That you ever begun?
|--------------------------------------|
|--------------------------------------|
|-7-9b-7---7---------------------------|
|--------9---9--9-11-9-11-9-7h9-7-9-7--|
|--------------------------------------|
|--------------------------------------|
D5          A5             B5
 Ain't it fun when you know?
        G5               D5
 That you're gonna die young?
|--------------------------------------|
|--------------------------------------|
|--------------------------------------|
|-11-9-11b---11-9-11b---11-9-11-9-7-9--|
|--------------------------------------|
|--------------------------------------|

It's such fun! 14x
guitarra Solo:
|---------------|
|---------------|
|---------------|
|---------------|
|-9/7/9/7/9/7/9-|
|-7/5/7/5/7/5/7-|

guitarra Base:
|----------------------------------------------------------------|
|*--------------------------------------------------------------*|
|----------------------------------------------------------------|
|----------------------------------------------------------------|
|*-5---5-5---5-5-5---7---7-7---7-7-7----9--7---9-7-9---9--7--9--*|
|--3---3-3---3-3-3---5---5-5---5-5-5----7--5---7-5-7---7--5--7---|

|-------------------------|
|-12^^^^^^^^^^^^^^^^^^^^^-|
|--------------11^^^^^^^^-|
|-------------------------|
|-------------------------|
|-------------------------|

 Final:
|----------10-9-----------------------------------------|
|----10-12------12-10---------------------------12------|
|-11------------------11---7-9-7----------------11------|
|--------------------------------9-7-9-7--------9-------|
|----------------------------------------9-7------------|
|-------------------------------------------------------|
Acordes para:
    Compositor: Cheetah Chrome / Peter LaughnerColaboración y revision:
    • Guilherme Paiva
    • João Davanço
    • Guilherme Schatzmann

    0 comentarios

      mostrar más comentarios

      ¿Conseguiste tocar?

      16tocaron0aún no

      ¡Graba un vídeo tocando Ain't It Fun y envianoslo!

      00:00 / 00:00
      outros vídeos desta música
      repetirqualidadeautomática
      Outro vídeos desta música
        00:00 / 00:00
        automática
        OK