Cifra Club

Aprenda

Breakdown

Guns N' Roses

Tab de bajo: Versão 2
G|----------------------------------------------------------------|
D|-----------------------------------------4-3-1------------------|
A|-4--2--2-4-1--1-2---4--2---2-4-1--1-2---------4--2--2-4-1--1-2--|
E|------------------4-------------------4-----------------------4-|

G|----------------------------------|------------|
D|----------------------------------|------------|
A|------------44444444444-----------|------------|
E|-22222222222-----------2222222222-|-4444444444-|

G|------------------------------------------------------------------|
D|------------------------------------------------------------------|
A|-4444444444444444--------------------------------4444444444444444-|
E|-----------------44444444444444442222222222222222-----------------|

G|------------------------------------------------------------------|
D|------------------------------------------------------------------|
A|------------------------------------------------------------------|
E|-2222222244444444111111112222222222222222222222244444444444444444-|

G|--------------------------------------------------------------|
D|--------------------------------------------------------------|
A|-------------------------44444444444444444444444444444444-----|
E|-244444444444444444444444---------------------------------2>>-|

G|------------------------------------------------------------------------|
D|-----------------------------------------------------------------4-3-1--|
A|-444444444444444422222222222222221111111111111111---------------------4-|
E|-------------------------------------------------4444444444444444-------|

G|------------------------------------------------------------------|
D|------------------------------------------------------------------|
A|-4444444444444444222222222222222244444444444444442222222222222222-|
E|------------------------------------------------------------------|

É isso ai galera!!!!!
Compositor Axl Rose
Colaboración y revision:
  • Matheus
15 reproducciones

0 comentarios

Mostrar mais comentários

¿Conseguiste tocar?

0 Tocaron 0 Ainda não

Grave um vídeo tocando Breakdown e mande pra gente!

00:00 / 00:00
outros vídeos desta música
repetir qualidade Automático
Outros vídeos desta música
00:00 / 00:00
Automático
OK