Cifra Club

Iron Horse

Guns N' Roses

Tablatura: Principal (guitarra)
Tom: G
(intro)

(guitar 1)
(riff 1)
|---0------0------0------0--------0----0-----0-|-7---------9---12-----12-|
|-----0------3------0------3--2-----2--1---1---|-8----10----------10--13-|
|-----------------------------2--------0-0-----|-7-------9---9--------12-|
|-2------0------2------0------2----------------|----7--------------------|
|-2-------------2---------------0--------------|-------------------------|
|-0-------------0------------------------------|-------------------------|

(riff 2)
|------------------------------------------------------------|
|------------------------------------------------------------|
|----------------------------------------------------------5-|
|------2-------------2-------------2-------2-----2---------5-|
|------0-0-0-0-0-0-0-0-0-0-0-0-0-0-0-0-0-0-3-0-0-3-0-0-0-0-3-|
|------------------------------------------------------------|

(guitar 2)
(riff 2)
|-------------------------|
|-------------------------|
|-7-9p7-------------------|
|-------------------------|
|-------------------------|
|-------------------------|

(verso)

(guitar 1)
|---0-------3--------2------------|
|-----1-------5--------3--------2-|
|-0-------------4--2-----2---2----|
|---------2--------------------2--|
|-------3------------------0------|
|---------------------------------| [3x]

|-0-------0--------2-------0------|
|-1-------0--------3-------2------|
|-0-------0--------2-------2------|
|-2-------2--------0-------2------|
|-3-------2----------------0------|
|---------0-----------------------|

(refrão)
(guitar 1)
|-----8-------5--------10--------8-----------5---------8---5-|
|-------8---5---5---------10---8---8-----------5-------8-8-5-|
|---------7------------------9-------------------5-------7---|
|------------------------------------------------------------|
|---5----------------7-------------------------------7-------|
|-8---------------10-----------------5-3-5-3-------5---------|

C           Em              D              A
The eggs is hatched, in the chicken of the man,
C               Em           D      A
The man eat the eggs and the chicken too,
C             Em       D          A
The finish of cicle is marked and maked,
C                Em     D    B  B
The cicle of the egg is did too.

C           D          A           A
The life is dead, like we and like that,
C          D        A       A
And if you want not this, try to miss.
C      D       A     A        B B B B B B B B B B B B B B B B
try to Love a blame, and try to shame your pareeeeeeeeeeeeeeents.
reproducciones 243
Acordes para:
    Composição: Guns N' Roses Colaboración y revision:
    • Renan

    0 comentarios

    mostrar más comentarios

    ¿Conseguiste tocar?

    0 tocaron 0 aún no

    ¡Graba un vídeo tocando Iron Horse y envianoslo!

    00:00 / 00:00
    outros vídeos desta música
    repetir qualidade Automático
    Outros vídeos desta música
    00:00 / 00:00
    Automático
    OK