Cifra Club

Live And Let Die

Guns N' Roses

Tablatura: Principal (guitarra)
Tom: F (con acordes en la forma de F#) Afinação: Eb Ab Db Gb Bb Eb
Primeira Parte:

    G5          Bm7         C
Eb|-------------------------------0----------|
Bb|-3-----3-----3-----3-----1-----1----------|
Gb|-0-----0-----2-----2-----0----------------|
Db|-0-----------0-----------2----------------|
Ab|-------------2--2-----2--3--3-----3-------|
Eb|-3--3-----3-------------------------------|

    D
Eb|-2----------------------------------------|
Bb|-3-----4----------------------------------|
Gb|-2-----2----------------------------------|
Db|-0--0-------------------------------------|
Ab|------------------------------------------|
Eb|------------------------------------------|

    G5          Bm7         C
Eb|-------3-----------------------0----------|
Bb|-3-----3-----3-----3-----1-----1----------|
Gb|-0-----------2-----2-----0----------------|
Db|-0-----------0-----------2----------------|
Ab|-------------2--2-----2--3--3-----3-------|
Eb|-3--3-----3-------------------------------|

    D
Eb|-2----------------------------------------|
Bb|-3-----4----------------------------------|
Gb|-2-----2----------------------------------|
Db|-0--0-------------------------------------|
Ab|------------------------------------------|
Eb|------------------------------------------|

    G5          Bm7         C
Eb|-------3------------------------0---------|
Bb|-3-----3-----3-----3-----1----1---1-------|
Gb|-0-----------2-----2-----0----------0-----|
Db|-0-----------0-----------2----------------|
Ab|-------------2--2-----2--3--3-------------|
Eb|-3--3-----3-------------------------------|

    A             D
Eb|--------0------2--------------------------|
Bb|-2----2---2----3--------3-----------------|
Gb|-2----------2--2-----2-----2~-------------|
Db|-2-------------0--0-----------------------|
Ab|-0--0-------------------------------------|
Eb|------------------------------------------|

G5                Bm7
   When you were young
          C           D
And your heart was an open book
G5              Bm7              C
   You used to say live and let live
               D
(You know you did)

(You know you did)
               G5
(You know you did)
            Bm7            C
But if this ever changing world
                 A
In which we live in
           D              (passagem 1)
Makes you give in and cry

(Passagem 1)

Eb|----------------------------------------------------|
Bb|-3-5-6----------------------------------------------|
Gb|----------------------------------------------------|
Db|----------------------------------------------------|
Ab|----------------------------------------------------|
Eb|----------------------------------------------------|


Segunda Parte:

                  G5  C5/G  G5-  G5
Say live and let die
              G5  C5/G  G5-
Live and let die

(Riff Principal 2x)

Eb|----------------------------------------------------|
Bb|----------------------------------------------------|
Gb|-12-14-15~----7-9-10~----5-3-0----------------------|
Db|-12-14-15~----7-9-10~----5-3-0----------------------|
Ab|----------------------------------------------------|
Eb|----------------------------------------------------|

Eb|----------------------------------------------------|
Bb|-------------------------13--11~--------------------|
Gb|-12-14-15~----7-9-10~----12--10~--------------------|
Db|-12-14-15~----7-9-10~-------------------------------|
Ab|----------------------------------------------------|
Eb|----------------------------------------------------|

Riff 1: G5

Eb|----------------------------------------------------|
Bb|----------------------------------------------------|
Gb|-15--11--13--9--11-----15--11--13--9--11------------|
Db|----------------------------------------------------|
Ab|-13--9---11--7--9------13--9---11--7--9-------------|
Eb|----------------------------------------------------|

Eb|----------------------------------------------------|
Bb|----------------------------------------------------|
Gb|-15--11--13--9--10--12-----9--10--12--14~-----------|
Db|----------------------------------------------------|
Ab|-13--9---11--7--8---10-----7--8---10--12~-----------|
Eb|----------------------------------------------------|


Terceira Parte:

(Guitarra 1)
Eb|------------------------------------------|
Bb|-x-x-5--x-x-5-5-x-x-x-x-x-x-5-5-----------|
Gb|-x-x-5--x-x-5-5-x-x-x-x-x-x-5-5-----------|
Db|-x-x-5--x-x-5-5-x-x-x-x-x-x-5-5-----------|
Ab|------------------------------------------|
Eb|------------------------------------------|

Eb|------------------------------------------|
Bb|-x-x-x-x-x-x-x-x-x-x-3-3-x-x-x-x-7--------|
Gb|-x-x-x-x-x-x-x-x-x-x-4-4-x-x-x-x-7--------|
Db|-x-x-x-x-x-x-x-x-x-x-5-5-x-x-x-x-7--------|
Ab|------------------------------------------|
Eb|------------------------------------------|

Eb|---------10-------------------------------|
Bb|-x-x-x-x-10-x-12-x-10b12------------------|
Gb|-x-x-x-x----x-12-x-10b12-12~--9-x-x-x-x-10|
Db|-x-x-x-x-----------------12~--9-x-x-x-x-10|
Ab|------------------------------7-x-x-x-x-8-|
Eb|------------------------------------------|

(Guitarra 2)
Eb|------------------------------------------|
Bb|------------------------------------------|
Gb|-5/---x\---x/---x\------------------------|
Db|-5/---x\---x/---x\------------------------|
Ab|-3/---x\---x/---x\------------------------|
Eb|------------------------------------------|

Eb|----3--x-x-----3--------7~----------------|
Bb|----3--x-x--------------------------------|
Gb|----4--x-x-3/4---x--5/7-------------------|
Db|-5----------------------------------------|
Ab|-5----------------------------------------|
Eb|-3----------------------------------------|

Eb|------------10-----------10----12/14-14~\-|
Bb|---------10-----10------------------------|
Gb|-------x-----------10h11----x--12/14------|
Db|-12--x------------------------------------|
Ab|------------------------------------------|
Eb|------------------------------------------|

Eb|------------------------------------------|
Bb|------------------------------------------|
Gb|-9~~-10~~---------------------------------|
Db|-9~~-10~~---------------------------------|
Ab|-7~~-8-~~---------------------------------|
Eb|------------------------------------------|

C                           G
  What does it matter to ya

When ya got a job to do
           D
Ya got to do it well
            E5                   F5
You got to give the other fella hell

(Riff Principal 2x)

Eb|----------------------------------------------------|
Bb|----------------------------------------------------|
Gb|-12-14-15~----7-9-10~----5-3-0----------------------|
Db|-12-14-15~----7-9-10~----5-3-0----------------------|
Ab|----------------------------------------------------|
Eb|----------------------------------------------------|

Eb|----------------------------------------------------|
Bb|-------------------------13--11~--------------------|
Gb|-12-14-15~----7-9-10~----12--10~--------------------|
Db|-12-14-15~----7-9-10~-------------------------------|
Ab|----------------------------------------------------|
Eb|----------------------------------------------------|


Quarta Parte:

Riff 2: G5  Bm7  C  D

Eb|----------------------------------------------------|
Bb|--------15~--17b19r17~--15p13-12b13-----------------|
Gb|-------------------------------------14b16r14-------|
Db|-----------------------------------------------12~--|
Ab|-12b14----------------------------------------------|
Eb|----------------------------------------------------|

G5              Bm7              C
   You used to say live and let live
               D
(You know you did)

(You know you did)
               G5
(You know you did)
            Bm7            C
But if this ever changing world
                 A
In which we live in
           D              (passagem 1)
Makes you give in and cry


Quinta Parte:

                     G5  C5/G  G5-  G5
Say live and let die
              G5  C5/G  G5-
Live and let die


Riff Principal 4x:

Eb|----------------------------------------------------|
Bb|----------------------------------------------------|
Gb|-12-14-15~----7-9-10~----5-3-0----------------------|
Db|-12-14-15~----7-9-10~----5-3-0----------------------|
Ab|----------------------------------------------------|
Eb|----------------------------------------------------|

Eb|----------------------------------------------------|
Bb|-------------------------13--11~--------------------|
Gb|-12-14-15~----7-9-10~----12--10~--------------------|
Db|-12-14-15~----7-9-10~-------------------------------|
Ab|----------------------------------------------------|
Eb|----------------------------------------------------|

(Guitarra 2 - oitavada)

Eb|-15-17-18~------------------------------------------|
Bb|--------------15-17-18~----13-----------------------|
Gb|------------------------------15-12-----------------|
Db|----------------------------------------------------|
Ab|----------------------------------------------------|
Eb|----------------------------------------------------|

Eb|-15-17-18~----15-17-18~----18b20--18~---------------|
Bb|----------------------------------------------------|
Gb|----------------------------------------------------|
Db|----------------------------------------------------|
Ab|----------------------------------------------------|
Eb|----------------------------------------------------|
reproducciones 8.625
Acordes para:

    0 comentarios

    mostrar más comentarios

    ¿Conseguiste tocar?

    40 tocaron 0 aún no

    ¡Graba un vídeo tocando Live And Let Die y envianoslo!

    00:00 / 00:00
    outros vídeos desta música
    repetir qualidade Automático
    Outros vídeos desta música
    00:00 / 00:00
    Automático
    OK