Cifra Club

Mr. Brownstone

Guns N' Roses

Tablatura: Principal
reproducciones 3.082
Tono: E
Intro

E|------------------------------------------------------------------|
B|---------------------------------3p2p0----------------------------|
G|-------------------------2-------------2p0-------------2----------|
D|-------------------------2-----------------2p0---------2----------|
A|-------2p0---------------0---------------------2p0-----0----------|
E|-0-3-4-----0-3-4-0---3-4---------------------------3b4------------|

E|------------------------------------------------------------------|
B|----------------------------------3-------------------------------|
G|-------------------------2--------2-----3-----4-------------------|
D|-------------------------2--------0-----2-----4-------------------|
A|-------2p0---------------0--------------0-----2-------b-----------|
E|-0-3-4-----0-3-4-0---3-4------------------------------3-----------|

Riff 1

E|------------------------------------------------------------------|
B|------------------------------------------------------------------|
G|------------------------------------------------------------------|
D|--------------------------5-----5h7---5-------5-------------------|
A|---5h7---5---5h7---7p5-7-----7-----------7----------7-------------|
E|------------------------------------------------------------------|

E|------------------------------------------------------------------|
B|------------------------------------------------------------------|
G|------------------------------------------------------------------|
D|--------------------------5-----5h7---5-------5-------------------|
A|---5h7---5---5h7---7p5-7-----7-----------7----------7-------------|
E|------------------------------------------------------------------|

Repetir Intro

E|------------------------------------------------------------------|
B|---------------------------------3p2p0----------------------------|
G|-------------------------2-------------2p0-------------2----------|
D|-------------------------2-----------------2p0---------2----------|
A|-------2p0---------------0---------------------2p0-----0----------|
E|-0-3-4-----0-3-4-0---3-4---------------------------3b4------------|

E|------------------------------------------------------------------|
B|----------------------------------3-------------------------------|
G|-------------------------2--------2-----3-----4-------------------|
D|-------------------------2--------0-----2-----4-------------------|
A|-------2p0---------------0--------------0-----2-------b-----------|
E|-0-3-4-----0-3-4-0---3-4------------------------------3-----------|

Riff 1

E|------------------------------------------------------------------|
B|------------------------------------------------------------------|
G|------------------------------------------------------------------|
D|--------------------------5-----5h7---5-------5-------------------|
A|---5h7---5---5h7---7p5-7-----7-----------7----------7-------------|
E|------------------------------------------------------------------|

E|------------------------------------------------------------------|
B|------------------------------------------------------------------|
G|------------------------------------------------------------------|
D|--------------------------5-----5h7---5-------5-------------------|
A|---5h7---5---5h7---7p5-7-----7-----------7----------7-------------|
E|------------------------------------------------------------------|

Refrão

E|----------3-1-3-x--5-3-5-x-------|
B|----------4-2-4-x--6-4-6-x-------|
G|-3-2-3-x--5-3-5-x--7-5-7-x-------|
D|-4-3-4-x--5-3-5-x--7-5-7-x-------|
A|-4-3-4-x--3-1-3-x--5-3-5-x-------|
E|-2-1-2-x-------------------------|

E|--------------------|
B|--------------------|
G|-------------7h9----|
D|---4-5-6-7h9--------|
A|-5------------------|
E|--------------------|

E|-------------------------------------------------------------------------------|
B|-------------------------------------------------------------------------------|
G|-------------------------------------------------------------------------------|
D|----------------------------5b----------------7b-5-----------------------------|
A|-7-7--7--7--7----5h7-7-7--7----7---5h7-7-7--7----------5h7--7--5--4--2---0-----|
E|---------------7-----------------7------------------7------------------3---3-0-|

Riff 2

Parte 1 (3x)

E|-------------------------------|
B|-------------------------------|
G|-------------------------------|
D|-9-7-9-----------7-5-7---------|
A|-9-7-9--5h6--9---7-5-7--3h4--7-|
E|-7-5-7-------7---5-3-5-------5-|

Parte 2

E|------------------------------|
B|------------------------------|
G|------------------------------|
D|-9-7-9-----------7-5-7--------|
A|-9-7-9--5h6--9---7-5-7--0-3-0-|
E|-7-5-7-------7---5-3-5--------|

Refrão

E|----------3-1-3-x--5-3-5-x-------|
B|----------4-2-4-x--6-4-6-x-------|
G|-3-2-3-x--5-3-5-x--7-5-7-x-------|
D|-4-3-4-x--5-3-5-x--7-5-7-x-------|
A|-4-3-4-x--3-1-3-x--5-3-5-x-------|
E|-2-1-2-x-------------------------|

E|--------------------|
B|--------------------|
G|-------------7h9----|
D|---4-5-6-7h9--------|
A|-5------------------|
E|--------------------|

E|-------------------------------------------------------------------------------|
B|-------------------------------------------------------------------------------|
G|-------------------------------------------------------------------------------|
D|----------------------------5b----------------7b-5-----------------------------|
A|-7-7--7--7--7----5h7-7-7--7----7---5h7-7-7--7----------5h7--7--5--4--2---0-----|
E|---------------7-----------------7------------------7------------------3---3-0-|

Solo

Continuarei editando amanhã 9 de Janeiro de 2013

I get up around seven
Get outta bed around nine
And I don't worry about nothin' no
Cause worryin's a waste of my...time

The show usually starts around seven
We go on stage around nine
Get on the bus about eleven
Sippin' a drink and feelin' fine

G5
We been dancin' with
 C5
Mr. Brownstone
 D5
He's been knockin'
   D5              E5
He won't leave me alone

    B5
I used ta do a little
but a little wouldn't do
    A5
So the little got more and more
    B5
I just keep tryin'
ta get a little better
    A5
Said 5 little better than before
    B5
I used ta do a little
but a little wouldn't do
    A5
So the little got more and more
    B5
I just keep tryin'
ta get a little better
    A5 G5 A5 G5
Said a little better than before

 G5
We been dancin' with
 C5
Mr. Brownstone
 D5
He's been knockin'
 D5                E5
He won't leave me alone

 (E D E)

Now I get up around whenever
I used ta get up on time
But that old man
he's a real muthafucker
Gonna kick him on down the line
Acordes para:
    Compositor: Guns N' RosesColaboración y revision:

    0 comentarios

      mostrar más comentarios

      ¿Conseguiste tocar?

      18tocaron1aún no

      ¡Graba un vídeo tocando Mr. Brownstone y envianoslo!

      00:00 / 00:00
      outros vídeos desta música
      repetirqualidadeautomática
      Outro vídeos desta música
        00:00 / 00:00
        automática
        OK