Cifra Club

One In A Million

Guns N' Roses

Tablatura: Principal (guitarra)
Tom: D
[Intro] E  D  A
        E  D  A
        C  G  D
        A  C  G  F  G
        A  C  G  F  G

  A           C
   Guess I needed
  G                  F  G
   Sometime to get away
  A                C
   I needed some peace of mind
  G                             F G
   Some piece of mind that'll stay
  A        C
   So I thumbed it
  G                   F  G
   Down to sixth and L.A.
  A          C
   Maybe a Greyhound
  G             F  G
   Could be my way
  A              C
   Police and niggers, that's right
  G               F  G
   Get out of my way
  A               C
   Don't need to buy
               G              F   G
   None of your gold chains today
  A                    C
   I don't need to bracelets
  G                        F   G
   Clamped in front on my back
  A                C
   Just need my ticket till then
  G                        F   G
   Won't you cut me some slack

  C                 G
   You're one in a million
  D                        A
   Yeah, that's what you are
  C                 G
   You're one in a million, babe
  D                    A
   You're a shooting star

  C                     G
   Maybe someday we'll see you
  D                    A
   Before you make us cry
  C                       G
   You know we tried to reach you
  D                       E    D
   But you were much too high
             E D A              E D A
Much too high,     much too high,
             E D A
Much too high,     yes, ow!

  A                 C
   Immigrants and faggots
  G                       F  G
   They make no sense to me
  A                   C
   They come to our country
  G                               F    G
   And think they'll do as they please
  A                   C
   Like start a mini Iran
  G                           F   G
   Or spread some fuckin' disease
  A                    C
   They talk so many goddamn ways
  G                   F G
   It's all greek to me
  A                  C
   Weel someday I'm lazy
  G                            F G
   And others say that's just me
  A                C
   Some say I'm crazy
  G                     F  G
   I guess I'll always be
  A                      C
   But it's been such a long time
  G                         F   G
   Since I knew right from wrong
  A              C
   It's all the means to an end
  G                   F  G
   I keep it movin' along

  C                  G
   You're one in a million
  D                    A
   You're a shooting star
  C                  G
   You're one in a million
  D                   A
   You know that you are

  C                     G
   Maybe someday we'll see you
  D                    A
   Before you make us cry
  C                         G
   You know we tried to reach you
  D                         E D A
But you were much too high
             E D A                  E D A
Much too high,     Oo, much too high

Yeah,
             E D A
Much too high,     huh, no, no, oh

Ow!

E|------------------------------------------------------------------7h8p7\5-|
B|----------------------------------------------------------------8---------|
G|------5---(5)----7h8p7p5-8-7-(7)-5-7-7-5------------------5-7/9-----------|
D|-7---------------------------------------7-7~~~(7)~~~--7------------------|
A|--------------------------------------------------------------------------|
E|--------------------------------------------------------------------------|

E|---------8-10-10fb-10fbr--(10)-8-10-8-10h11p10p(8)-10-8-12-11-11qb-10-10-8-----------------|
B|-5--8/10--------------------------------------------------------------------10-10-(10)--10-|
G|-------------------------------------------------------------------------------------------|
D|-------------------------------------------------------------------------------------------|
A|-------------------------------------------------------------------------------------------|
E|-------------------------------------------------------------------------------------------|

E|-7h8p7-------------------------------------------------------------------|
B|-------10---8/10--6h8p6\5---6---5h6p5---5-----5--------------------------|
G|----------9---------------7---7-------7---7/8---8\7--8p7-5-8p7-5-7-------|
D|-------------------------------------------------------------------7-7-7-|
A|-------------------------------------------------------------------------|
E|-------------------------------------------------------------------------|

E|-----------------------------------------------------------------------|
B|-----------------------------------------------------------------------|
G|-5h7p5\4-5-4h5p4-4-----------------------------------------------------|
D|-------------------5-3---3-3--0h2-----0h2p0----------0--------2--------|
A|-----------------------------------3--------(0)-2-3-----3p2-----3p2----|
E|------------------------------------------------------------3-------3--|

E|--------------------------------------------5---7--------8-(8)---8-----|
B|------------------------------------------5---5---5------------5---5---|
G|----------------------------------------5-----------5------------------|
D|-----------------------------------5-7---------------------------------|
A|----3--5-3-5hb-5~~(5)~~-3-5-3-5/7--------------------------------------|
E|-/5--------------------------------------------------------------------|

E|-8/10-10-8-10/12--------------------------------------13--13---12---12---10-|
B|-----------------10-10-(10)~~~~~~~(10)~~~~~~~~~~~~~-------------------------|
G|----------------------------------------------------------------------------|
D|----------------------------------------------------------------------------|
A|----------------------------------------------------------------------------|
E|----------------------------------------------------------------------------|

  A              C
   Radicals and racists
  G                             F G
   Don't point your fingers at me
  A                      C
   I'm a small town white boy
  G                          F   G
   Just tryin' to make ends meet
  A                    C
   Don't need your religion
  G                       F G
   Don't watch that much TV
  A                 C
   Just makin' my livin', baby
  G                         F G
   Well, that's enough for me

  C                  G
   You're one in a million
  D                       A
   Yeah, that's what you are
  C                  G
   You're one in a million
  D                    A
   You're a shooting star
  C                   G
   Maybe someday we'll see you
  D                    A
   Before you make us cry
  C                      G
   You know we tried to reach you
  D                        E  D
   But you were much too high
  A/C#       E  D    A/C#       E  D
   Much too high, oh, much too high
  A/C#       E  D A/C#       E   D
   Much too high,  much too high
  A/C#       E  D A/C#       E   D
   Much too high,  much too high
  A/C#       E  D A/C#       E   D
   Much too high,  much too high
  A/C#       E  D A/C#       E   D
   Much too high,  much too high
  A/C#       E  D A/C#       E   D
   Much too high,  much too high
reproducciones 4.392
Acordes para:
    Composição: Guns N' Roses Colaboración y revision:

    0 comentarios

    mostrar más comentarios

    ¿Conseguiste tocar?

    31 tocaron 1 aún no

    ¡Graba un vídeo tocando One In A Million y envianoslo!

    00:00 / 00:00
    outros vídeos desta música
    repetir qualidade Automático
    Outros vídeos desta música
    00:00 / 00:00
    Automático
    OK