Cifra Club

Rocket Queen

Guns N' Roses

Tablatura: Principal (guitarra)
Tom: B (con acordes en la forma de C) Afinação: Eb Ab Db Gb Bb Eb
[Intro]

Guitarra 2
Eb|-------------------------------|
Bb|-------------------------------|
Gb|-9--9/-------------------------|
Db|-9--9/----------14--12---------|
Ab|-7--7/--12--14--12--10--12--14-|
Eb|--------10--12----------10--12-|
 
Guitarra 1
Eb|-------------------------------|
Bb|-------------------------------|
Gb|-------------------------------|
Db|-4----4/----------4\2-4\2-4\2--|
Ab|-4----2/-----------------------|
Eb|-2----2/-----------------------|
 
 Guitarra 2
Eb|-------------------------|
Bb|-------------------------|
Gb|-------------------------|
Db|----------14--12---------|
Ab|--12--14--12--10--12--14-|
Eb|--10--12----------10--12-|
 
Guitarra 1
Eb|-------------------|
Bb|-------------------|
Gb|-------------------|
Db|-4--7--6--4--------|
Ab|-4--7--7--4--------|
Eb|-------------------|
 
Guitarra 2
Eb|----------------------------------------------------------------|
Bb|----------------------------------------------------------------|
Gb|--4b-4b-4b-4b-4b-4b-r-p2----------------------------------------|
Db|--------------------------4\6\7/4/2-4-4~/2/1-0-10~\0------------|
Ab|----------------------------------------------------------------|
Eb|----------------------------------------------------------------|
 
Guitarra 1 e 2
Eb|---------------------------------|
Bb|---------------------------------|
Gb|---------------------------------|
Db|---------------------------------|
Ab|------0h1-------------0h1-0h1----|
Eb|--0-2------0-2--0-2--------------|
  
Guitarra 1
Eb|--------------------------------------------------------------------------|
Bb|-9--10/8-------7--9---2-2-x-x-2-x-x-2-x-x-2-x-x-4-x-x-4-x-x-6-6-6-6-6-6---|
Gb|-11--9/7-------7--9---4-4-x-x-4-x-x-4-x-x-4-x-x-6-x-x-6-x-x-8-8-8-8-8-8---|
Db|-11--7/5-------5--7---4-4-x-x-4-x-x-4-x-x-4-x-x-6-x-x-6-x-x-8-8-8-8-8-8---|
Ab|--------------------------------------------------------------------------|
Eb|--------------------------------------------------------------------------|
  
Eb|-----------------------------|
Bb|-----------------------------|
Gb|----------------2--4---------|
Db|-9/7-4--4/7--2--2--4--2--4---|
Ab|-9/7-4--4/7--2--0--2--2--4---|
Eb|-7/5-2--2/5--0--------0--2---|
  
Eb|-----------------------------|
Bb|-----------------------------|
Gb|----------------2--4---------|
Db|--4/7-4--4/7-2--2--4--2--4---|
Ab|--4/7-4--4/7-2--0--2--2--4---|
Eb|--2/5-2--2/5-0--------0--2---|
   
Guitarra 1 e 2
Eb|-------------------------------------|
Bb|-------------------------------------|
Gb|-------------------------------------|
Db|-4-2---------------------------------|
Ab|-----4-3-2-0----0--3-2-0-------------|
Eb|--------------2----------1-2~~/10\0--|
   
Guitarra 1 e 2
Eb|---------------------------------|
Bb|---------------------------------|
Gb|---------------------------------|
Db|---------------------------------|
Ab|------0h1-------------0h1-0h1----|
Eb|--0-2------0-2--0-2--------------|
  
Guitarra 1
Eb|--------------------------------------------------------------------------|
Bb|-9--10/8-------7--9---2-2-x-x-2-x-x-2-x-x-2-x-x-4-x-x-4-x-x-6-6-6-6-6-6---|
Gb|-11--9/7-------7--9---4-4-x-x-4-x-x-4-x-x-4-x-x-6-x-x-6-x-x-8-8-8-8-8-8---|
Db|-11--7/5-------5--7---4-4-x-x-4-x-x-4-x-x-4-x-x-6-x-x-6-x-x-8-8-8-8-8-8---|
Ab|--------------------------------------------------------------------------|
Eb|--------------------------------------------------------------------------|

Eb|-----------------------------|
Bb|-----------------------------|
Gb|----------------2--4---------|
Db|-9/7-4--4/7--2--2--4--2--4---|
Ab|-9/7-4--4/7--2--0--2--2--4---|
Eb|-7/5-2--2/5--0--------0--2---|
  
Eb|-----------------------------|
Bb|-----------------------------|
Gb|----------------2--4---------|
Db|--4/7-4--4/7-2--2--4--2--4---|
Ab|--4/7-4--4/7-2--0--2--2--4---|
Eb|--2/5-2--2/5-0--------0--2---|
   
Guitarra 1 e 2
Eb|-------------------------------------|
Bb|-------------------------------------|
Gb|-------------------------------------|
Db|-4-2---------------------------------|
Ab|-----4-3-2-0----0--3-2-0-------------|
Eb|--------------2----------1-2~~/10\0--|
   

[Solo]

Eb|------------------------------------------------------------------------------------|
Bb|-2///11-----------------------------------------------------------------------------|
Gb|-2///11----11----/14---14----\9-9---9/11/14----\14-------14/16----\16-------16\14~--|
Db|-2///11-11-------/14-14------\9---9--/11----14-----14----------16-----16------------|
Ab|------------------------------------------------------14-----------------16---------|
Eb|------------------------------------------------------------------------------------|
 
Eb|---------------------------------------------------------------17-17-17/21---|
Bb|-13/14--13/14------------------------------------------13/17-----------------|
Gb|---------------14\13-----------14\13-----------------------------------------|
Db|--------------------14----------------14/16----------------------------------|
Ab|-----------------------14----------------------------------------------------|
Eb|-----------------------------------------------------------------------------|
 
Eb|------------19--19--19-19-19-19-19-19-19\\------------|
Bb|---17/19----------------------------------------------|
Gb|------------------------------------------------------|
Db|------------------------------------------------------|
Ab|------------------------------------------------------|
Eb|------------------------------------------------------|
 
 Guitarra 2
Eb|---------------------------------|
Bb|---------------------------------|
Gb|---------------------------------| (o Guitarra dois faz isso durante todo o solo)
Db|---------------------------------|
Ab|------0h1-------------0h1-0h1----|
Eb|--0-2------0-2--0-2--------------|
 
Guitarra 1 e 2
Eb|---------------------------------------------|
Bb|---------------------------------------------|
Gb|---------------------------------------------|
Db|---------------------------------------------|
Ab|--------2-4--4--------------2---2-4-4hb-4b-2-|
Eb|---3-4----------3h4--0-0---------------------|
 
Eb|-----------------------------|
Bb|-----------------------------|
Gb|----------------2--4---------|
Db|--4/7-4--4/7-2--2--4--2--4---|
Ab|--4/7-4--4/7-2--0--2--2--4---|
Eb|--2/5-2--2/5-0--------0--2---|
   
Guitarra 1 e 2
Eb|-------------------------------------|
Bb|-------------------------------------|
Gb|-------------------------------------|
Db|-4-2---------------------------------|
Ab|-----4-3-2-0----0--3-2-0-------------|
Eb|--------------2----------1-2~~/10\0--|
   
Eb|-------|
Bb|-------| (16x)
Gb|-------|
Db|--4----|
Ab|--4----|
Eb|--2----|
 
Eb|--------------------------------------------------------------|
Bb|--------------------------------------------------------------|
Gb|------9----4---6--6---6---------------------------9--2--6--6--|
Db|------9----4---6--6---6---------------------------9--2--6--6--|
Ab|------7----2---4--4---4-------2-4--4--------------7--0--4--4--|
Eb|--0-0---------------------3-4--------3h4--0-0-----------------|
 
Eb|--------------------------------------------------------------|
Bb|--------------------------------------------------------------|
Gb|-----------------------------9----4---6--6-----------------9--|
Db|-----------------------------9----4---6--6-----------------9--|
Ab|--2-4-4b5-4b6-2--------------7----2---4--4-----------------7--|
Eb|----------------2b4-2b3--0-0----------------0-2b4r(2)-0-------|
 
Eb|-------------------------------------------------------------|
Bb|-------------------------------------------------------------|
Gb|-9--9-9---------------4--4-4-4-4-4-4-4-4-4-4-4-4---4---------|
Db|-9--9-9---------------4--4-4-4-4-4-4-4-4-4-4-4-4---4---------|
Ab|-7--7-7---------------2--2-2-2-2-2-2-2-2-2-2-2-2---2---------|
Eb|----------2b4r(2)-0------------------------------------------|
 
Eb|----0--------0-------0------0----------0--------0------0-------0----------|
Bb|------9---------7-------5------5---0------9--------7------7-------5-----7-|
Gb|-9------9--8-------6------6------6---9------9-8------8-------8-------8----|
Db|--------------------------------------------------------------------------|
Ab|--------------------------------------------------------------------------|
Eb|--------------------------------------------------------------------------|
 
Eb|----0--------0-----------0-------0----------0---------0-------0-----0-0-------|
Bb|------9--------7------5-------------0---------9----------7--------4-----4-----|
Gb|-9------9-8------6--6------6--4-------6--9------9--8--------4---4---------4---|
Db|------------------------------------------------------------------------------|
Ab|------------------------------------------------------------------------------|
Eb|------------------------------------------------------------------------------|
 
Guitarra 1 e 2                
Eb|--------------------------------|   
Bb|--------------------------------|   
Gb|--------------------------------|   
Db|--x-x-9-x-x-4-x-6-6-6-6-6-6-6-6-|   
Ab|--x-x-7-x-x-2-x-4-4-4-4-4-4-4-4-|  
Eb|--x-x---x-x---x-----------------|  
                                      
Eb|--------------------------------|  
Bb|--------------------------------|  
Gb|--------------------------------|   
Db|-x-x-9-x-x-2-4-4-4-4-4-4-4-4-4--|   
Ab|-x-x-7-x-x-0-2-2-2-2-2-2-2-2-2--|   
Eb|-x-x---x-x----------------------|   
                                 
Outro:
Eb|--------------------------------------------------------------------------------|
Bb|--------------------------------------------------------------------------------|
Gb|-11b---11b-p9--11b--9-------------------9----11b----r-p9-11b----11br------------|
Db|-----------------------11~~--------9h11---11------------------------------------|
Ab|------------------------------/11-----------------------------------------------|
Eb|--------------------------------------------------------------------------------|
 
Eb|--------------------------------------------------------------------------------|
Bb|------------------------------------------12b---12---------12b--r---12----------|
Gb|-9---8h9--8-9-11--------11b--11--11--r-9------------11b--9----------------------|
Db|------------------9-11----------------------------------------------------------|
Ab|--------------------------------------------------------------------------------|
Eb|--------------------------------------------------------------------------------|
 
Eb|------------11hb--r--7----------------14b--14b-p12-14--14b--12------------------|
Bb|-----------------------7----------------------------------------14--------------|
Gb|-11hb---9----------------8br----------------------------------------------------|
Db|--------------------------------9-----------------------------------------------|
Ab|----------------------------------9---------------------------------------------|
Eb|--------------------------------------------------------------------------------|
 
Eb|----------------------12-12-12-----------------14b---14b-p12-14--14b--12--------|
Bb|-12-----14--14p12---------------12-14-14p12------------------------------14b----|
Gb|----13-------------13-----------------------13----------------------------------|
Db|--------------------------------------------------------------------------------|
Ab|--------------------------------------------------------------------------------|
Eb|--------------------------------------------------------------------------------|
 
Eb|-11-14------------------------9--11--12-11h12p11p9----11----9h11p9----9---------|
Bb|--------14b-p12----12-----12-----------------------12----12--------12-----------|
Gb|----------------13--------------------------------------------------------------|
Db|--------------------------------------------------------------------------------|
Ab|--------------------------------------------------------------------------------|
Eb|--------------------------------------------------------------------------------|
 
Eb|----9---------------------------------------------------------------------------|
Bb|-12---12---10h12p10-9h10p9-10p9p8h9p7--8p7p5--7p5p4-h5-------7h9h10-/12---------|
Gb|-------------------------------------------------------6h8h9--------------------|
Db|--------------------------------------------------------------------------------|
Ab|--------------------------------------------------------------------------------|
Eb|--------------------------------------------------------------------------------|
 
Eb|-9h12p11p9h12b---12---11-12-11---------------------------11--11hb-----11~~~-----|
Bb|-------------------------------12-------------------12--------------------------|
Gb|-------------------------------------11~---11-11~-------------------------------|
Db|--------------------------------------------------------------------------------|
Ab|--------------------------------------------------------------------------------|
Eb|--------------------------------------------------------------------------------|
 
Eb|-------------------------|------------------------------------------0-----------|
Bb|-------------------------|------------------------------------------0-----------|
Gb|-------------------------|------------------------------------------1-----------|
Db|-9-9-8-8-4-4-4-4-4-4-4-4-|-9-9-8-8-6-6-6-6-4-4-4-2-2-2-2------------2---x-x-9\o-|
Ab|-7-7-6-6-2-2-2-2-2-2-2-2-|-7-7-6-6-4-4-4-4-2-2-2-0-0-0-0--6-6-6-----2---x-x-7\0-|
Eb|-------------------------|--------------------------------4-4-4-----0---x-x-----|
reproducciones 7.408
Acordes para:

    0 comentarios

    mostrar más comentarios

    ¿Conseguiste tocar?

    19 tocaron 1 aún no

    ¡Graba un vídeo tocando Rocket Queen y envianoslo!

    00:00 / 00:00
    outros vídeos desta música
    repetir qualidade Automático
    Outros vídeos desta música
    00:00 / 00:00
    Automático
    OK